Ads

I Was Lost Without You (Mass Effect 3) Guitar Tab

Submitted: Mar 28, 2013 by Bhael

5
Average: 5 (5 votes)
Download | Listen
Game: Mass Effect 3
Composer(s): Sam Hulick, Cris Velasco, Clint Mansell, Christopher Lennertz, Sascha Dikiciyan
Style: Arrangement, Fingerstyle

Click here for a video example.

AutoScroll: Slow | Medium | Fast
                       
                           I Was Lost Without You                              
                                Mass Effect 3
                                 Sam Hulick

Drop D


     Q    Q    Q    Q       Q    Q    Q    Q       Q    E  E  Q    E  E   
E||----------------------|----------------------|----------0--1----3--1--|
B||--3---------3---------|--3---------3---------|--3---------------------|
G||-------2--------------|-------2--------------|-------2----------------|
D||-------3---------0----|-------3---------0----|-------3----------3-----|
A||------------1---------|------------1---------|-------------1----------|
D||--0-------------------|--0-------------------|--0---------------------|


  Q    E  E  Q     Q        Q    E  E  Q    Q       E  E  E  E  Q    Q     
--0----------------------|----------0------------|-----0-----0--1----3----|
-------3--1--0-----------|--3----------3---------|--3-----3----------1----|
-------2----------(0)----|-------2---------------|--------2----------2----|
-------2-----------0-----|-------3----------0----|--------3---------------|
--0----------------------|-------------1---------|--------------0----3----|
-------------5-----------|--0--------------------|--0---------------------|


  ^         ^                                               
  Q    Q    Q    Q       Q    E  E     Q    Q    Q    Q     
--5---------5---------|-------------|----------------------|
-------3---------3----|--1-------1--|--3---------3---------|
--4---------3---------|-------2-----|-------2--------------|
-----------------0----|-------2-----|-------3---------0----|
------------1---------|--3----------|------------1---------|
--5-------------------|-------------|--0-------------------|


  Q    E  E  Q    E  E     E  E  E  E  Q     Q        Q    Q    H         
----------0-------0--1--|--1--3--1--0--------------|---------------------|
--3----------3----------|--------------3-----------|--3------------------|
-------2----------------|--------2----------(0)----|-------2-------------|
-------3----------3-----|--------------------0-----|-------3-------------|
-------------1----------|--0-----3-----------------|---------------------|
--0---------------------|--------------5-----------|--0---------0--------|


   Q    Q     Q    Q       Q    Q    Q    Q        Q    Q     Q    Q     
------------------------|--0-------------------|------------------------|
--------8----------8----|------------0---------|--------8----------8----|
--10---------10---------|-------5---------7----|--10---------10---------|
---0--------------------|----------------------|--------------0---------|
------------------------|--0-------------------|------------------------|
--------------8---------|------------5---------|---0----------8---------|


  E  E  E  E  E  E  E  E     E  E  E  E  E  E  E  E   
--0-----0--------------3--|--1--0--1-----1--0--1-----|
--------------0-----0-----|-----------3-----------3--|
-----7-----5-----------0--|--------2-----------3-----|
-----------------7--------|-----3-----------3--------|
--0-----------------------|--------------1-----------|
--------------5-----------|--0-----------------------|


                      ^                                 
  E  E   E   E  E  E  E  E     E  E  E  E  E  E  E  E   
----------------------------|--1--0--1--3--5-----------|
--1--0---1------0-----0--3--|--------------------5-----|
--------(2)--2-----2--0-----|--------2--------5-----5--|
-----2-------------0--------|-----3--------------------|
--0-------------------------|--------------0-----------|
----------------5-----------|--0-----------------------|


                                       ^                                 
  E  E  E  E  E  E  E  E     Q    Q    H           Q    Q    Q    E  E   
--7--5--7--3--1--0--1-----|---------------------|--0----1----3----5-----|
-----------------------3--|--1---------3--------|-----------------------|
--------0-----------3-----|-------2----0--------|-------2------------5--|
-----0-----------3--------|-------2-------------|-----------------7-----|
--------------1-----------|--0------------------|--3--------------------|
--5-----------------------|------------5--------|------------5----------|


                              ^      ^                  ^                
  S S S S S S S S S S S S S S S S    T  T S S S S S S S S S S S S S S S  
----------5-----3-5-----------7-8-|--8p-7-5-------------5---------------|
--3---------------------6---------|-------------5-----8---------3---5---|
----2---2---2---------7---7---0---|--5--------5---5-----7---5---4---5---|
------0-------0-----7-------------|---------7-------7-----7---7---------|
----------------------------0-----|--0------------------0---------0---0-|
--0-------------------------------|-------------------------------------|


                              ^      ^                  ^                
  S S S S S S S S S S S S S S S S    T  T S S S S S S S S S S S S S S S  
------5---5-----3-5-----------7-8-|--8p-7-5-------------5---------------|
--3---------------------------0---|--5----------5-----8-5-----------5---|
------2---2-----------------2-----|-----------5---5---------5---7-------|
----0---0-----0-----0-2---3-------|---------7-------7-----7---7---7---7-|
----------------------------------|--0------------------0-------0-------|
--0---------0-----------0---------|-------------------------------------|


                  ^                                                     
  S S S S S S S S S S S S S S E     T  T S S S S S S S S S S S S S S S  
------3---3----------------------|-------------------------------------|
--3-------------6-8---0---1---3--|--1p-0-----------------------0---1---|
------5---4-----------0----------|-------2-----2-------0---------------|
----0---0-----0---7-----0--------|-----------3---3---3---3---3-3---2---|
--------------------5-------0----|---------3-------3-------3-----3---3-|
--5---------5-----5--------------|--3----------------------------------|


  S S S S S S S S    S S S S S S S S S S S S S S S S  
------------------|----------0-------1-------3-------|
--0---------------|--3-------------------------------|
----------5-------|----2---2---2---2---3---3---3---3-|
--0---------------|------3-------3-------3-------3---|
------5-------5---|------------------1-------1-------|
----5---5---5---5-|--0-------0-----------------------|


  S S S S S S S S S S S S S S S S    S S E  H.             
--5-------------------------------|----------------------||
----5-5---5-5---5-----5-----5-----|--5-------------------||
--------6-----6---6-----6-----6---|----6-----------------||
--------------------7-----7-----7-|------7--L------------||
--0-------------------------------|----------------------||
----------------------------------|----------------------||

Login or Register to remove this ad.