A Future for the Krogan (Mass Effect 3) Guitar Tab

Submitted: Jul 11, 2012 by Giogiogio4 (Last updated: Jul 11, 2012)

5
Average: 5 (1 vote)
Download | Listen
Game: Mass Effect 3
Composer(s): Sam Hulick, Cris Velasco, Clint Mansell, Christopher Lennertz, Sascha Dikiciyan
Style: 2 or more instruments, Alternate picking, Arrangement

Click here for a video example.

AutoScroll: Slow | Medium | Fast
Support Tab by liking the Video and Subscribing!!!
Video on Youtube!

A Future for the Krogan
Mass Effect 3
Composed by Christopher Lennertz
Arranged by Giogiogio4


 Guitar 1 ------------------------------------------------------

                      Two Voices ( Not chords )                                    
                      H          H           Q    E   E   Q     Q     
E||-------|-------|-----------------------|--------------------------|
B||-------|-------|-------------10--------|--L----8------------------|
G||-------|-------|---7-------------------|----------10p--9----10----|
D||-------|-------|-----------------------|--------------------------|
A||-------|-------|--12-------------------|-------L------------------|
E||-------|-------|-----------------------|--------------------------|


   H         H           H.           Q        H         H         
----------------------|--------------------|----------------------|
----------------------|--------------------|------------10--------|
--10--------11--------|--L-----------------|---7------------------|
----------------------|--------------------|----------------------|
--11------------------|--L-----------------|--12------------------|
----------------------|--------------------|----------------------|


  Q    E   E   Q     Q        W                   H.           Q     
--------------------------|--------------------|--------------------|
--L----8------------------|--14----------------|--L-----------------|
----------10p--9----10----|--------------------|--------------------|
--------------------------|--15----------------|--L-----------------|
-------L------------------|--------------------|--------------------|
--------------------------|--------------------|--------------------|


                       Two Voices                                      
  W                    H          H           Q    E   E   Q     Q     
-------------------|-----------------------|--------------------------|
-------------------|-------------10--------|--L----8------------------|
-------------------|---7-------------------|----------10p--9----10----|
-------------------|-----------------------|--------------------------|
-------------------|--12-------------------|-------L------------------|
-------------------|-----------------------|--------------------------|


   H         H           H.           Q        H         H         
----------------------|--------------------|----------------------|
----------------------|--------------------|------------10--------|
--10--------11--------|--L-----------------|---7------------------|
----------------------|--------------------|----------------------|
--11------------------|--L-----------------|--12------------------|
----------------------|--------------------|----------------------|


  Q    E   E   Q     Q        W                   H.           Q     
--------------------------|--------------------|--------------------|
--L----8------------------|--14----------------|--L-----------------|
----------10p--9----10----|--------------------|--------------------|
--------------------------|--15----------------|--L-----------------|
-------L------------------|--------------------|--------------------|
--------------------------|--------------------|--------------------|


   Lead change                                                              
   H           H           Q     E   E   Q     Q        H         H         
------------------------|---------------------------|----------------------|
---8----------15--------|--L----13------------------|--18--------19--------|
--12--------------------|-----------15--14----15----|------------11--------|
------------------------|---------------------------|----------------------|
------------------------|---------------------------|----------------------|
------------------------|---------------------------|----------------------|


  H.           Q        H         H            H.            Q     
--------------------|----------------------|----------------------|
--L-----------------|--19--------21--------|--18------------------|
--L-----------------|----------------------|----------------17----|
--------------------|--16--------18--------|--15------------------|
--------------------|----------------------|----------------------|
--------------------|----------------------|----------------------|


   W                   W                                                 
--------------------|-------------------|-------|-------|-------|-------|
--17----------------|--L----------------|-------|-------|-------|-------|
--------------------|-------------------|-------|-------|-------|-------|
--14----------------|-------------------|-------|-------|-------|-------|
--------------------|-------------------|-------|-------|-------|-------|
--------------------|-------------------|-------|-------|-------|-------|


                  H.            Q        H         H         
-------|-------|---------------------|----------------------|
-------|-------|---------------------|------------12--------|
-------|-------|--9------------11----|--12------------------|
-------|-------|---------------------|----------------------|
-------|-------|---------------------|----------------------|
-------|-------|---------------------|----------------------|


   H.            Q        H         Q     Q       H.            Q     
----------------------|------------------------|---------------------|
----------------------|--10--------13----12----|---------------------|
--11------------12----|------------------------|--9------------11----|
----------------------|------------------------|---------------------|
----------------------|------------------------|---------------------|
----------------------|------------------------|---------------------|


   H         H            H.            Q        H         Q     Q     
----------------------|----------------------|------------------------|
------------12--------|----------------------|--10--------13----12----|
--12------------------|--11------------12----|------------------------|
----------------------|----------------------|------------------------|
----------------------|----------------------|------------------------|
----------------------|----------------------|------------------------|


   H.            Q        H         H            H.            Q     
----------------------|----------------------|----------------------|
----------------------|------------15--------|--15------------------|
--12------------14----|--16------------------|----------------16----|
----------------------|----------------------|----------------------|
----------------------|----------------------|----------------------|
----------------------|----------------------|----------------------|


   H         Q     Q        H.            Q        H         H         
------------------------|----------------------|----------------------|
------------13----12----|----------------------|------------15--------|
--14--------------------|--12------------14----|--16------------------|
------------------------|----------------------|----------------------|
------------------------|----------------------|----------------------|
------------------------|----------------------|----------------------|


   H.            Q        H         Q     Q       W                 
----------------------|------------------------|-------------------|
----------------------|------------------------|-------------------|
--14------------16----|--14--------12----11----|--9----------------|
----------------------|------------------------|-------------------|
----------------------|------------------------|-------------------|
----------------------|------------------------|-------------------|


  W                                                                             
-------------------|-------------------|-------------------|-------------------|
-------------------|-------------------|-------------------|-------------------|
--L----------------|-------------------|-------------------|-------------------|
-------------------|-------------------|-------------------|-------------------|
-------------------|-------------------|-------------------|-------------------|
-------------------|-------------------|-------------------|-------------------|


-------------------|-------------------|-------------------|
-------------------|-------------------|-------------------|
-------------------|-------------------|-------------------|
-------------------|-------------------|-------------------|
-------------------|-------------------|-------------------|
-------------------|-------------------|-------------------|


  H.            Q        H         H            H.            Q     
---------------------|----------------------|----------------------|
---------------------|------------12--------|----------------------|
--9------------11----|--12------------------|--11------------12----|
---------------------|----------------------|----------------------|
---------------------|----------------------|----------------------|
---------------------|----------------------|----------------------|


   H         Q     Q       H.            Q        H         H         
------------------------|---------------------|----------------------|
--10--------13----12----|---------------------|------------12--------|
------------------------|--9------------11----|--12------------------|
------------------------|---------------------|----------------------|
------------------------|---------------------|----------------------|
------------------------|---------------------|----------------------|


   W                    H         H           W                 
--------------------|----------------------|-------------------|
--15----------------|--13------------------|-------------------|
--------------------|------------14--------|--9----------------|
--------------------|----------------------|-------------------|
--------------------|----------------------|-------------------|
--------------------|----------------------|-------------------|


-------------------|-------------------|-------------------|
-------------------|-------------------|-------------------|
-------------------|-------------------|-------------------|
-------------------|-------------------|-------------------|
-------------------|-------------------|-------------------|
-------------------|-------------------|-------------------|


  H.            Q        H         H            H.            Q     
---------------------|----------------------|----------------------|
---------------------|------------12--------|----------------------|
--9------------11----|--12------------------|--11------------12----|
---------------------|----------------------|----------------------|
---------------------|----------------------|----------------------|
---------------------|----------------------|----------------------|


   H         Q     Q       H.            Q        H         H         
------------------------|---------------------|----------------------|
--10--------13----12----|---------------------|------------12--------|
------------------------|--9------------11----|--12------------------|
------------------------|---------------------|----------------------|
------------------------|---------------------|----------------------|
------------------------|---------------------|----------------------|


   H.            Q        H         Q     Q        H.            Q     
----------------------|------------------------|----------------------|
----------------------|--10--------13----12----|----------------------|
--11------------12----|------------------------|--12------------14----|
----------------------|------------------------|----------------------|
----------------------|------------------------|----------------------|
----------------------|------------------------|----------------------|


   H         H            W                    H         Q     Q     
----------------------|--------------------|------------------------|
------------15--------|--15----------------|------------------------|
--16------------------|--------------------|--14--------12----11----|
----------------------|--------------------|------------------------|
----------------------|--------------------|------------------------|
----------------------|--------------------|------------------------|


  W                                       W                                     
-------------------|-------------------|-------------------|-------------------|
-------------------|-------------------|-------------------|-------------------|
--9----------------|-------------------|--L----------------|-------------------|
-------------------|-------------------|-------------------|-------------------|
-------------------|-------------------|-------------------|-------------------|
-------------------|-------------------|-------------------|-------------------|









Guitar 2 ---------------------------------------------------------                                                                
             H.           Q       W                   W                 
E||-------|--------------------|-------------------|-------------------|
B||-------|--------------------|-------------------|-------------------|
G||-------|---------------7----|--7----------------|-------------------|
D||-------|---------------7----|--7----------------|--L----------------|
A||-------|---------------5----|--5----------------|--L----------------|
E||-------|--------------------|-------------------|-------------------|


  W                   S S H        Q.        W                 
-------------------|----------------------|-------------------|
-------------------|----------------------|-------------------|
-------------------|----------------------|--7----------------|
--4----------------|--4-4-----------------|--7----------------|
--4----------------|--4-4-----------------|--5----------------|
--2----------------|--2-2-----------------|-------------------|


  W                   W                   S S H        Q.              
-------------------|-------------------|----------------------|-------|
-------------------|-------------------|----------------------|-------|
-------------------|-------------------|----------------------|-------|
--L----------------|--4----------------|--4-4-----------------|-------|
--L----------------|--4----------------|--4-4-----------------|-------|
-------------------|--2----------------|--2-2-----------------|-------|


  W                   W                   W                 
-------------------|-------------------|-------------------|
-------------------|-------------------|-------------------|
--7----------------|-------------------|-------------------|
--7----------------|--L----------------|--4----------------|
--5----------------|--L----------------|--4----------------|
-------------------|-------------------|--2----------------|


  S S H        Q.        W                   W                 
----------------------|-------------------|-------------------|
----------------------|-------------------|-------------------|
----------------------|--7----------------|-------------------|
--4-4-----------------|--7----------------|--L----------------|
--4-4-----------------|--5----------------|--L----------------|
--2-2-----------------|-------------------|-------------------|


  W                   S S H        Q.        W                 
-------------------|----------------------|-------------------|
-------------------|----------------------|-------------------|
-------------------|----------------------|-------------------|
--4----------------|--4-4-----------------|--5----------------|
--4----------------|--4-4-----------------|--5----------------|
--2----------------|--2-2-----------------|--3----------------|


  W                   W                   S S H        Q.      
-------------------|-------------------|----------------------|
-------------------|-------------------|----------------------|
-------------------|-------------------|----------------------|
--L----------------|--4----------------|--4-4-----------------|
--L----------------|--4----------------|--4-4-----------------|
--L----------------|--2----------------|--2-2-----------------|


  H        H           H.           Q       W                                   
--------------------|--------------------|-------------------|---------|-------|
--------------------|--------------------|-------------------|---------|-------|
--------------------|--------------------|-------------------|---------|-------|
--4-----------------|--3-----------------|-------------------|---------|-------|
--4--------6--------|--3------------3----|--2----------------|---------|-------|
--2--------4--------|--1-----------------|--0----------------|---------|-------|


          PM PM PM PM PM PM PM PM    PM PM PM PM PM PM PM PM  
          E  E  E  E  E  E  E  E     E  E  E  E  E  E  E  E   
-------|--------------------------|--------------------------|
-------|--------------------------|--------------------------|
-------|--------------------------|--------------------------|
-------|--------------------------|--------------------------|
-------|--7--7--7--7--7--7--7--7--|--5--5--5--5--5-----5-----|
-------|--------------------------|-----------------7-----7--|


  PM PM PM PM PM PM PM PM    PM PM PM PM    PM    PM                      
  E  E  E  E  E  E  E  E     E  E  E  E  E  E  E  E     W                 
--------------------------|--------------------------|-------------------|
--------------------------|--------------------------|-------------------|
--------------------------|--------------------------|-------------------|
--------------------------|--------------------------|--2----------------|
--------------------------|--------------7-----7-----|--2----------------|
--7--7--7--7--7--7--7--7--|--5--5--5--5-----5-----5--|--0----------------|


  W                   W                   W                   W                 
-------------------|-------------------|-------------------|-------------------|
-------------------|-------------------|-------------------|-------------------|
-------------------|--7----------------|-------------------|-------------------|
--5----------------|--7----------------|--7----------------|--2----------------|
--5----------------|--5----------------|--7----------------|--2----------------|
--3----------------|-------------------|--5----------------|--0----------------|


  W                   W                   W                   W                 
-------------------|-------------------|-------------------|-------------------|
-------------------|-------------------|-------------------|-------------------|
-------------------|--7----------------|-------------------|-------------------|
--5----------------|--7----------------|--7----------------|--2----------------|
--5----------------|--5----------------|--7----------------|--2----------------|
--3----------------|-------------------|--5----------------|--0----------------|


  W                   W                   W                   W                 
-------------------|-------------------|-------------------|-------------------|
-------------------|-------------------|-------------------|-------------------|
-------------------|--7----------------|-------------------|-------------------|
--5----------------|--7----------------|--7----------------|--2----------------|
--5----------------|--5----------------|--7----------------|--2----------------|
--3----------------|-------------------|--5----------------|--0----------------|


  W                   W                   W                   W                 
-------------------|-------------------|-------------------|-------------------|
-------------------|-------------------|-------------------|-------------------|
-------------------|--7----------------|-------------------|-------------------|
--5----------------|--7----------------|--7----------------|--2----------------|
--5----------------|--5----------------|--7----------------|--2----------------|
--3----------------|-------------------|--5----------------|--0----------------|


   W                   H.           Q       H        Q    Q     
--------------------|--------------------|---------------------|
--------------------|--------------------|---------------------|
--------------------|--------------------|---------------------|
--------------------|--------------------|---------------------|
--/5----------------|--5------------2----|--0------------------|
--------------------|--------------------|-----------3----2----|


  W                    W                   H.           Q     
-------------------|--------------------|--------------------|
-------------------|--------------------|--------------------|
-------------------|--------------------|--------------------|
--2----------------|--------------------|--------------------|
--2----------------|--/5----------------|--5------------2----|
--0----------------|--------------------|--------------------|


  H        Q    Q       W                   W                 
---------------------|-------------------|-------------------|
---------------------|-------------------|-------------------|
---------------------|-------------------|-------------------|
---------------------|--2----------------|--5----------------|
--0------------------|--2----------------|--5----------------|
-----------3----2----|--0----------------|--3----------------|


  W                   W                   W                   W                 
-------------------|-------------------|-------------------|-------------------|
-------------------|-------------------|-------------------|-------------------|
--7----------------|-------------------|-------------------|-------------------|
--7----------------|--7----------------|--2----------------|--5----------------|
--5----------------|--7----------------|--2----------------|--5----------------|
-------------------|--5----------------|--0----------------|--3----------------|


  W                   W                   W                   W                 
-------------------|-------------------|-------------------|-------------------|
-------------------|-------------------|-------------------|-------------------|
--7----------------|-------------------|-------------------|-------------------|
--7----------------|--7----------------|--2----------------|--5----------------|
--5----------------|--7----------------|--2----------------|--5----------------|
-------------------|--5----------------|--0----------------|--3----------------|


  W                   W                   W                   W                 
-------------------|-------------------|-------------------|-------------------|
-------------------|-------------------|-------------------|-------------------|
--7----------------|-------------------|-------------------|-------------------|
--7----------------|--7----------------|--2----------------|--5----------------|
--5----------------|--7----------------|--2----------------|--5----------------|
-------------------|--5----------------|--0----------------|--3----------------|


  W                   W                   W                   W                 
-------------------|-------------------|-------------------|-------------------|
-------------------|-------------------|-------------------|-------------------|
--7----------------|-------------------|-------------------|-------------------|
--7----------------|--7----------------|--2----------------|--5----------------|
--5----------------|--7----------------|--2----------------|--5----------------|
-------------------|--5----------------|--0----------------|--3----------------|


  W                   W                   W                   W                 
-------------------|-------------------|-------------------|-------------------|
-------------------|-------------------|-------------------|-------------------|
--7----------------|-------------------|-------------------|-------------------|
--7----------------|--7----------------|--2----------------|--5----------------|
--5----------------|--7----------------|--2----------------|--5----------------|
-------------------|--5----------------|--0----------------|--3----------------|


  W                   W                   W                                     
-------------------|-------------------|-------------------|
-------------------|-------------------|-------------------|
--7----------------|-------------------|-------------------|
--7----------------|--7----------------|--2----------------|
--5----------------|--7----------------|--2----------------|
-------------------|--5----------------|--0----------------|




Duration Legend
---------------
W - whole
H - half
Q - quarter
E - 8th
S - 16th
T - 32nd
X - 64th
. - note dotted
|-n-|  - n-tuplets


Tablature Legend
----------------
L - tied note
x - dead note
g - grace note
(n) - ghost note
> - accentuded note
NH - natural harmonic
AH - artificial harmonic
TH - tapped harmonic
SH - semi harmonic
PH - pitch harmonic
h - hammer on
p - pull off
b - bend
br - bendRelease
pb - preBend
pbr - preBendRelease
brb - bendReleaseBend
\n/ - tremolo bar dip
\n - tremolo bar dive
-/n - tremolo bar Release up
/n\ - tremolo bar inverted dip
/n - tremolo bar return
-\n - tremolo bar Release down
S - shift slide
s - legato slide
/ -  slide into from below or out of upwards
\ -  slide into from above or out of downwards
~ - vibrato
W - wide vibrato
tr - trill
TP - tremolo picking
T - tapping
S - slap
P - pop
< - fade in
^ - brush up
v - brush down
Login or Register to remove this ad.

7 comments on A Future for the Krogan

"Two Voices ( Not chords

"Two Voices ( Not chords )"
what?

Jacob31593 said"Two Voices (

Jacob31593 said

"Two Voices ( Not chords )"
what?

Lead: a Woman SINGING with her VOICE.
Those parts are TWO Woman singing.

Don't play a chord because it's not a chord. it's the other Womans voice.

so you want two people to

so you want two people to play those parts? why not just make a separate track?

Hehe, I just assumed that was

Hehe, I just assumed that was the case when I saw the tab. Now I'm confused, though.

Jacob31593 said so you want

Jacob31593 said

so you want two people to play those parts? why not just make a separate track?

Why would i make a whole other 80 measure track just for 2 notes at 2 parts through the whole song?

to avoid confusion, but now

to avoid confusion, but now that we've gotten this discussion out of the way anyone confused by your tab can just read all these lovely comments

You could mark it divisi, if

You could mark it divisi, if you wanted. That's how it'd be marked in professional sheet music / tabs.

Though I think people will understand regardless.