Ads

An End Once and For All (Mass Effect 3) Guitar Tab

Submitted: Jul 31, 2012 by Bhael (Last updated: Mar 26, 2014)

5
Average: 5 (8 votes)
Download | Listen
Game: Mass Effect 3
Composer(s): Sam Hulick, Cris Velasco, Clint Mansell, Christopher Lennertz, Sascha Dikiciyan
Style: Arrangement, Fingerstyle, Natural harmonics

Click here for a video example.

AutoScroll: Slow | Medium | Fast
 
                        An End Once and For All                             
                               Mass Effect 
                              Clint Mansell


Arranged by Harry Murrell


     E  E  H.              E  E  H.              E  E  H.            
E||---------------------|---------------------|---------------------|
B||--0------------------|--1------------------|--0------------------|
G||---------------------|---------------------|---------------------|
D||---------------------|--------2------------|--------4------------|
A||--------2------------|-----3---------------|-----5---------------|
D||-----2---------------|---------------------|--0------------------|


                                                                NH            
  E  E  E  E  E  E  E  E     E  E  H.              E  E  E      E   H         
--------------------------|---------------------|----------------------------|
--0--------------------0--|---------------------|--3-------------------------|
--------------0--2--------|---------------------|--------0-------------------|
-----------4--------------|--------2------------|-----0----------------------|
--------2-----------2-----|-----2---------------|-----------<>(12)--L--------|
-----2--------------------|--2------------------|--5-------------------------|


  E  E  E   E   H           E  E  E  E  H           E  E  E  E  E  E  E  E   
-------------------------|-----------------------|--------------------------|
--1----------------------|--3--------2--L--------|--0--------------0-----1--|
--------2--(4)--L--------|--------2--------------|--------------2-----------|
-----2-------------------|-----4-----------------|-----------2--------------|
--0----------------------|--2--------------------|--------2-----------2-----|
-------------------------|-----------------------|-----2--------------------|


  E  E  E  E  E  E  E  E     E  E  E  E  E  E  E  E   
--------------------------|--------------------------|
--------------3--1-----0--|--------------0--------0--|
--------0-----------------|-----------------2--------|
-----2-----2--------2-----|--------4-----------------|
--3-----------------------|-----5-----5--------------|
--------------------------|--0-----------------0-----|


  E  E  E  E  E  E  E  E     E  E   E   E  E  E  E  E   
--------------------------|----------------------7-----|
-----------------------0--|-------------------5-----5--|
--------------0--2--------|-----0-------L--------------|
--------2--4--------------|----------------------------|
-----2--------------2-----|--7-----(7)-----L-----------|
--2-----------------------|----------------------------|


               NH                                            
  E  E  E      E   E  E  E  E     E  E  E   E   E  E  E  E   
-------------------------7-----|----------------------7-----|
--3-------------------5-----5--|-----------(0)--L--5-----5--|
--------0----------------------|--5-------------------------|
-----0-------------------------|--------7-------------------|
-----------<>(12)--L-----------|-----0----------------------|
--5----------------------------|----------------------------|


  E  E  E  E  E  E  E  E     E  E  H.              E  E  E  E  E  Q.      
-----------------------0--|---------------------|--0---------------------|
--3--------2-----3--------|---------------------|------------------------|
-----------------4--------|--------0------------|-----------------0------|
--------4-----4-----4-----|-----2---------------|--------2--4--L---------|
-----2--------------------|--3------------------|-----2------------------|
--------------------------|---------------------|--2---------------------|


  Q.     E  E  E  E  E     E  E  E  E  E  E  E  E     E  E  E  E  E  E  E  E   
--0------------0-----0--|--0-----0--------0-----0--|--0-----0--------0-----0--|
---------5--L-----------|-----5--------------5-----|-----5--------------5-----|
------------------0-----|--------------------0-----|--------------------0-----|
--2---------------------|--------------------------|-----------2--L-----------|
--3---------------------|-----------2--L-----------|--3-----------------------|
------------------------|--2-----------------------|--------------------------|


  ^                          ^                        
  E  E  E  E  E  E  E  E     E  E  E  E  E  E  E  E   
--0-----0--------0-----0--|--0-----0--------0-----0--|
-----5--------------5-----|-----5--------------5-----|
--7-----------------------|--5-----------------------|
-----------0--L-----------|-----------2--L-----------|
--------------------------|--0-----------------------|
--5-----------------------|--------------------------|


  E  E  E  E  E  E  E  E     E  E  E  E  E  E  E  E   
--0--------------------7--|--------------5--7-----8--|
--------------2--3--------|--------0-----------------|
--------2-----------------|-----0-----0--------0-----|
-----4-----4--------4-----|--------------------------|
--2-----------------------|--7-----------------------|
--------------------------|--------------------------|


   E   E  E  E   E  E  E  E     E  E  E  E  E  E  E  E   
----------------10--8-----7--|--------------7--5-----7--|
-------------0---------------|--------------------------|
----------0------------0-----|--------0-----------------|
------10---------------------|-----4-----4--------------|
-----------------------------|-----------------5--------|
--10-------------------------|--0-----------------0-----|


  E  E  E  E  E  E  E  E     E  E   E   E  E  E  E  E   
-----------0--3--5-----7--|----------------------7-----|
--------0-----------------|-------------------5-----5--|
-----0--------------0-----|-----0----------L-----------|
--------------------------|----------------------------|
--7-----------------------|--7-----(7)--L--------------|
--------------------------|----------------------------|


               NH                                            
  E  E  E      E   E  E  E  E     E  E  E   E   E  E  E  E   
-------------------------7-----|----------------------7-----|
--3-------------------5-----5--|-----------(0)--L--5-----5--|
--------0----------------------|--5-------------------------|
-----0-------------------------|--------7-------------------|
-----------<>(12)--L-----------|-----0----------------------|
--5----------------------------|----------------------------|


  E  E  E  E  E  E  E  E     E  E  E  E  Q    Q       E  E  E  E  H         
-----------------------0--|-------------------2----|--3-----------5--------|
--3--------2-----3--------|------------------------|-----------------------|
-----------------4--------|------------------------|--------0--L-----------|
--------4-----4-----4-----|--------2--L------------|-----2-----------------|
-----2--------------------|-----2--------L---------|--3--------------------|
--------------------------|--2---------------------|-----------------------|


  E  E  E  E  Q    Q       E  E  E  E  H           Q    Q    Q    Q     
-------------------0----|--2-----------3--------|--0--------------2----|
--3---------------------|-----------------------|----------------------|
--------2--L------------|--------4--L-----------|----------------------|
-----4--------L---------|-----4-----------------|--2---------4---------|
------------------------|--2--------------------|-------2--------------|
--0---------------------|-----------------------|--2-------------------|


                                                           ^          
  Q    Q    Q    Q       Q    Q    Q    Q       Q    Q     Q    Q     
--3---------5---------|------------0---------|------------10---------|
----------------------|--3-------------------|--7----------8---------|
------------0---------|-----------------0----|-----------------------|
-------2---------2----|--0---------4---------|-------------9---------|
--3-------------------|-------0--------------|-------9----------9----|
----------------------|--0-------------------|--9--------------------|


                         ^                      ^                    
  Q    Q    Q    Q       Q    Q    Q    Q       Q    Q    Q    Q     
--7---------5---------|--3-------------------|--2--------------0----|
--8-------------------|--5---------7---------|--3---------3---------|
-------0---------0----|-------5---------5----|----------------------|
----------------------|----------------------|-------4--------------|
--7-------------------|--3-------------------|----------------------|
----------------------|----------------------|--0-------------------|


  Q    Q    H           H        E  E  E  E     E  E  E  E  E  E  E  E   
--2------------------|-----------------7-----|--0-----------------------|
---------------------|--------------5-----5--|--------------------------|
------------4--------|--L--------L-----------|--------------------------|
-------4-------------|-----------------------|-----2--2--2--2--2--2--2--|
--2------------------|-----------------------|-----2--2--2--2--2--2--2--|
---------------------|-----------------------|--2-----------------------|


  E  E  E  E  E  E  E  E     E  E  E  E  E  E  E  E   
--------------------------|--------------------------|
--------------------------|--0-----------------------|
--------------------------|--------------------------|
--2--2--2--2--2--2--2--2--|-----4--4--4--4--4--4--4--|
--3--3--3--3--3--3--3--3--|--5--5--5--5--5--5--5--5--|
--------------------------|--------------------------|


  E  E  E  E  E  E  E  E     E  E  E  E  E  E  E  E     E  E  E  E  E  Q.      
--------------------------|--------------------------|------------------------|
--0-----------------------|--0-----------------------|------------------------|
--------------------------|-----------0-----------0--|------------------------|
--------------------------|-----------------2--------|-----------4--L---------|
-----2--2--2--2--2--2--2--|--3--3--3-----3-----3-----|--5--5--5--------5------|
--2--2--2--2--2--2--2--2--|--------------------------|------------------------|


  E  E  E  E  E  E  E  E     W                  
--------------------------|-------------------||
--------------------------|-------------------||
--------------0-----------|-------------------||
--2-----2--4-----4--2-----|-------------------||
-----2-----------------2--|-------------------||
--2-----------------------|--2----------------||
Login or Register to remove this ad.

13 comments on An End Once and For All

Oh man, I actually tried to

Oh man, I actually tried to figure out some of this for myself from the piano score but couldn't even come close. Thanks so much for making this!

My pleasure.

My pleasure.

Great tab

5

Nice theme, I didn't remind it despite I finished Mass Effect 3 : shame :/
I like the easy fingerstep however it needs "emotional skill" to play it right, it doesn't sound the first time for me, but with my future training, I m sure it gonna sound brilliant as u did on your recording.

In my opinion this pianist video can help also to find again the "spirit" of this song : http://www.youtube.com/watch?v=5jSyVFRW6eM

Thanks for sharing :)

Many thanks diralark, I agree

Many thanks diralark, I agree it isn't an easy piece to play musically.

L?

What do the L's mean and are parentheses harmonics?

Held notes, so the previous

Held notes, so the previous note on that string is still pressed down and supposed to ring/sound on the next beat or more, and it could be called L due to the word legato, You've got the parentheses part right.

Thanks

Thanks

<>?

What is the <> and how do I do it?

I replied to you on that

I replied to you on that video comment, but here it is again.

It means natural harmonic, which is strange becuase guitarpro puts NH above the note as well.

To do a natural harmonic you place your fretting finger near the right side of the given note, in this case A12. Do not push down on the fret like you normally would to play a note. Then just pluck that string.

Natural harmonics typically sound best on frets 12,7, and 5.

Here's a list of tabs on this site that use natural harmonics for more practice.

http://www.gametabs.net/style/1443

I'm really sorry because I

I'm really sorry because I didn't see your reply:(. What is it in the video demonstration where he taps on the 12th fret with his finger? Is that a way to do natural harmonics or is it a different thing?

Hey, that's simply a natural

Hey, that's simply a natural harmonic that is fretted with the right hand index finger and plucked with the thumb or finger of that same hand. This frees up your left hand to hold the chord. Hope that helps.

Thank you so much:D I really

Thank you so much:D I really appreciate it!

This is a AWESOME!

5

This is a AWESOME!