Ads

Down the Pipe! (Mario Party) Guitar Tab

Submitted: Jan 22, 2012 by Lemoncobbler

5
Average: 5 (1 vote)
Download | Listen
Game: Mario Party
Composer(s): Yasunori Mitsuda
Style: Arrangement, Fingerstyle
Series: Mario

AutoScroll: Slow | Medium | Fast
                          Mario Party Down the Pipe!                            


Track 1 (Capo 1)
Composed by Yasunori Mitsuda
Tabbed by Lemoncobbler
January 21st 2012


     H.              Q    Q    Q       H.              Q    Q    Q     
E||---------------|-----------------|---------------|-----------------|
B||---------------|-----------------|---------------|-----------------|
G||---------------|-----------------|---------------|-----------------|
D||---------------|-----------------|--0------------|--0--------------|
A||---------------|-------2----4----|---------------|-------4----0----|
E||--0------------|--0--------------|---------------|-----------------|


  H.              Q    Q    Q       Q    H           Q    Q    Q     
---------------|-----------------|----------------|-----------------|
---------------|-----------------|----------------|-----------------|
---------------|-----------------|----------------|-----------------|
---------------|-----------------|--0----2--------|------------0----|
---------------|-------2----4----|----------------|--2----4---------|
--0------------|--0--------------|----------------|-----------------|


  Q    Q    Q       Q    Q    Q       Q    Q    Q       Q    Q    Q     
--0----2----2----|--0----2----L----|-------0----0----|-----------------|
-----------------|-----------------|--3--------------|--3--------------|
-----------------|-----------------|-----------------|-------4----L----|
-----------------|-----------------|--0---------L----|--0--------------|
-----------------|-------2----4----|-----------------|-------4----0----|
--0---------L----|--0--------------|-----------------|-----------------|


  Q    Q    Q       Q    Q    Q       Q    Q    Q       Q    Q    Q     
--0----2----2----|--4----4----5----|--7----5----4----|--5----2----4----|
-----------------|-----------------|-----------------|-----------------|
-----------------|-----------------|-----------------|-----------------|
-----------------|-----------------|--0----2----L----|------------0----|
-----------------|-------2----4----|-----------------|--2----4---------|
--0--------------|--0--------------|-----------------|-----------------|


  Q    Q    Q       Q    Q    Q       Q    Q    Q       Q    Q    Q     
--0----2----2----|--0----2----L----|-------0----0----|-----------------|
-----------------|-----------------|--3--------------|--3--------------|
-----------------|-----------------|-----------------|-------4----L----|
-----------------|-----------------|--0---------L----|--0--------------|
-----------------|-------2----4----|-----------------|-------4----0----|
--0---------L----|--0--------------|-----------------|-----------------|


  Q    Q    Q       Q    Q    Q       Q    Q    Q       Q    Q    Q      
--0----2----2----|--4----4----5----|--7----5----4----|--5----2----4----||
-----------------|-----------------|-----------------|-----------------||
-----------------|-----------------|-----------------|-----------------||
-----------------|-----------------|--0----2----L----|------------0----||
-----------------|-------2----4----|-----------------|--2----4---------||
--0--------------|--0--------------|-----------------|-----------------||

REPEAT TO INFINITY


Duration Legend
---------------
W - whole
H - half
Q - quarter
E - 8th
S - 16th
T - 32nd
X - 64th
. - note dotted
|-n-|  - n-tuplets


Tablature Legend
----------------
L - tied note
x - dead note
g - grace note
(n) - ghost note
> - accentuded note
NH - natural harmonic
AH - artificial harmonic
TH - tapped harmonic
SH - semi harmonic
PH - pitch harmonic
h - hammer on
p - pull off
b - bend
br - bendRelease
pb - preBend
pbr - preBendRelease
brb - bendReleaseBend
\n/ - tremolo bar dip
\n - tremolo bar dive
-/n - tremolo bar Release up
/n\ - tremolo bar inverted dip
/n - tremolo bar return
-\n - tremolo bar Release down
S - shift slide
s - legato slide
/ -  slide into from below or out of upwards
\ -  slide into from above or out of downwards
~ - vibrato
W - wide vibrato
tr - trill
TP - tremolo picking
T - tapping
S - slap
P - pop
< - fade in
^ - brush up
v - brush down
Login or Register to remove this ad.