Ads

Castle Grounds (Mario Party 3) Guitar Tab

Submitted: Sep 17, 2016 by Kyle8497

5
Average: 5 (1 vote)
Download | Listen
Game: Mario Party 3
Composer(s): Koji Kondo
Style: 2 or more instruments, Transcription
Series: Mario

AutoScroll: Slow | Medium | Fast
Song: Castle Grounds
Game: Mario Party 3
Composer(s): Ichiro Shimakura
Tab creator: Kyle8497
Date created: 9/12/16


Legend:

x - Palm mute the previous note.
\ - Slide down (to).
/ - Slide up (to).
h - Hammer-on.
p - Pull-off.
~ - Sustain/finger vibrato.

-------------------------------------------





Lead Guitar

e|-12~--------------------------------------|
B|-------8-8~-----8-10--8-6--10-8-----------|
G|------------------------------------------|
D|---------------------------------10-10----| x2
A|------------------------------------------|
E|------------------------------------------|

(After x1)
e|------------------------------------------|
B|--------------------8-10--8-6--10-8-------|
G|-10--9-7-----7--9-------------------------|
D|----------10------------------------10-10~|
A|------------------------------------------|
E|------------------------------------------|

(After x2)
e|------------------------------------------|
B|------------------------------------------|
G|-10--9-7-----7--9-------------------------|
D|----------10--------10-12--10-9--12-10~---|
A|------------------------------------------|
E|------------------------------------------|





Rhythm Guitar

e|0----0----0----0----1----1----1----1----3-|
B|---1----1----1----1----1----1----1----1---| ____
G|------------------------------------------|	  |
D|------------------------------------------|	  |
A|------------------------------------------|	  |
E|------------------------------------------|	  |
						  | x6
e|---3----3----3----1----1----1----1--------|	  |
B|-1----1----1----1----1----1----1----1-----|	  |
G|------------------------------------------|     |
D|------------------------------------------| ____|
A|------------------------------------------|
E|------------------------------------------|
Login or Register to remove this ad.