Login or Register to remove this ad.

BGM 1 (Mario Paint) Guitar Tab

Submitted: Sep 28, 2013 by CordycepsNG

5
Average: 5 (4 votes)
Download | Listen
Game: Mario Paint
Composer(s): Kazumi Totaka, Hirokazu Tanaka, Ryoji Yoshitomi
Style: Transcription
Series: Mario

AutoScroll: Slow | Medium | Fast
e|------------1-------1--------------------------------------------|
B|------1--2-------4-----4--1----2--4--2-------1--2--1-------------|
G|---3------------------------------------3-------------1----------|
D|-----------------------------------------------------------------|
A|-----------------------------------------------------------------|
E|-----------------------------------------------------------------|

e|-----------1-------1---------------------------------------------|
B|-----1--2-------4-----4--1----2--4--2-------1--2--1--------------|
G|--3------------------------------------3-------------1-----------|
D|-----------------------------------------------------------------|
A|-----------------------------------------------------------------|
E|-----------------------------------------------------------------|

e|--4--2--6--2--0--1--4----------2--1--------1----1-----------4--1-|
B|-------------------------3--4--------1--2----------4--3--4-------|
G|-----------------------------------------------------------------|
D|-----------------------------------------------------------------|
A|-----------------------------------------------------------------|
E|-----------------------------------------------------------------|

e|--------------1--4--8--------------11--8-------------------------|
B|--4--2--1--2-----------11--10--11-----------9--------------------|
G|-----------------------------------------------------------------|
D|-----------------------------------------------------------------|
A|-----------------------------------------------------------------|
E|-----------------------------------------------------------------|
		x2					x3
e|--------|--------------------------------1------|------------------|
B|--------|---------------------------------------|------------------|
G|--1--2--|--3--1--2--3--1--2--3--1--2--3----1--2-|--3--1--2---------|
D|--------|---------------------------------------|------------------|
A|--------|---------------------------------------|------------------|
E|--------|---------------------------------------|------------------|

e|----1--4--5--6--9--6--0-----1--4--1-------4--5--6--9--6--0--1--4--1------|
B|-------------------------------------2-------------------------------2---|
G|--3----------------------------------------------------------------------|
D|-------------------------------------------------------------------------|
A|-------------------------------------------------------------------------|
E|-------------------------------------------------------------------------|

e|--4----6--1-----4----6--9--6--4----6--1-----4--------------------|
B|-------------2---------------------------2-----------------------|
G|-----------------------------------------------------------------|
D|-----------------------------------------------------------------|
A|-----------------------------------------------------------------|
E|-----------------------------------------------------------------|
Login or Register to remove this ad.

3 comments on BGM 1

It's awesome

5

It's your first tab, and i assume that your next tabs will be awesome too.

Really Good

5

thanks man! It's pretty nice sounding and easy to learn.

nice

awesomewhite hat seo