Ads

Cackletta Theme (Mario & Luigi: Superstar Saga) Bass Tab

Submitted: Nov 08, 2009 by RexLeRouge (Last updated: Nov 08, 2009)

5
Average: 5 (1 vote)
Download | Listen
Game: Mario & Luigi: Superstar Saga
Composer(s): Yoko Shimomura
Style: Transcription
Series: Mario

AutoScroll: Slow | Medium | Fast
Cackletta Theme
Mario & Luigi: Superstar Saga
Tabbed by RexLeRouge
Composed by Yoko Shimomura


Basse
     W                     Q    Q    Q    Q       Q    Q    Q    Q     
G||-------------------||-----------------------|----------------------|
D||-------------------||*----------------------|----------------------|
A||-------------------||*--8-------------------|------------8---------|
E||-------------------||-------------6---------|--8-------------------|


   Q    Q    Q    Q       Q    Q    Q    Q       E  S S E  E  S S S S E  E   
-----------------------|----------------------|-----------------------------|
--11-------------------|----------------------|-----------------------------|
-----------------------|------------8---------|-----4-3-4-------------------|
-------------6---------|--8-------------------|------------4--5-7-5-4-2--5--|


  E  S S E  E  E  E  Q       Q    Q    Q    Q       Q    Q    Q    Q     
--------------------------|----------------------|----------------------|
---------1----------------|----------------------|----------------------|
-----3-4-------------4----|----------------------|------------4---------|
------------5--4--2-------|--5---------2---------|--4-------------------|


  W                   W                   
-------------------|--------------------||
-------------------|-------------------*||
-------------------|-------------------*||
-------------------|--4-----------------||
Login or Register to remove this ad.

1 comment on Cackletta Theme

I loved this game & song and

5

I loved this game & song and this tab is great too XD