Ads

Cackletta Theme (Mario & Luigi: Superstar Saga) Guitar Tab

Submitted: Nov 08, 2009 by RexLeRouge

5
Average: 5 (1 vote)
Download | Listen
Game: Mario & Luigi: Superstar Saga
Composer(s): Yoko Shimomura
Style: 2 or more instruments, Transcription
Series: Mario

AutoScroll: Slow | Medium | Fast
Cackletta Theme
Mario & Luigi: Superstar Saga
Tabbed by RexLeRouge
Composed by Yoko Shimomura



Mélodie
     H.           E  E        S S  S S  E   E   S  S  S  S E   E   
E||---------------------||----------------------------------------|
B||---------------------||----------------------------------------|
G||------------------9--||*--10-9-10-9-10-------------------------|
D||---------------------||*----------------10--11-13-11-10-8--11--|
A||---------------------||----------------------------------------|
E||---------------------||----------------------------------------|


  E  S  S E   E  E  E   Q       E  S S S S  S S  E  E  S S  S S  
-----------------------------|----------------------------------|
----------8------------------|-----9-8-9-8----9-----8--9-8------|
-----9-10--------------10----|-------------10---10---------10-9-|
-------------10--8--6--------|----------------------------------|
-----------------------------|----------------------------------|
-----------------------------|----------------------------------|


  S S  S S S  S S S  S S  S S S S  S S    E   S  S  E   E   S  S  S  S E   E   
-----------8---------------------------|--------------------------------------|
--8-9-11-8---11-9-8---------8-9-8------|--------------------------------------|
--------------------10-9-10-------10-9-|--------------------------------------|
---------------------------------------|-----11-10-11-------------------------|
---------------------------------------|---------------11--12-14-12-11-9--12--|
---------------------------------------|--------------------------------------|


  E   S  S  E   E   E  E   Q       E   S  S  E   E   S  S  S  S E   E   
--------------------------------|--------------------------------------|
--------------------------------|--------------------------------------|
--------------------------------|--------------------------------------|
-----10-11-13-------------11----|-----11-10-11-------------------------|
---------------12--11--9--------|---------------11--12-14-12-11-9--12--|
--------------------------------|--------------------------------------|


  E   S  S  E   E   E   E   Q       E  E  Q    E  E  Q     
---------------------------------|------------------------|
---------------------------------|------------------------|
---------------------------------|--------6----------6----|
-----10-11-13--10----------11----|-----7----------7-------|
-------------------12--11--------|--7----------6----------|
---------------------------------|------------------------|


   H.           E  E     
-----------------------||
-----------------------||
-------------------9--*||
--10------------L-----*||
--11------------L------||
-----------------------||



Harmonie
     W                     W                   W                 
E||-------------------||--------------------|-------------------|
B||-------------------||--------------------|-------------------|
G||-------------------||*-------------------|-------------------|
D||-------------------||*-------------------|-------------------|
A||-------------------||--------------------|-------------------|
E||-------------------||--------------------|-------------------|


  E   S S  E   E   S  S  S  S E   E     E  S  S E   E  E  E   Q     
-------------------------------------|-----------------------------|
-------------------------------------|----------8------------------|
-----10-9-10-------------------------|-----9-10--------------10----|
--------------10--11-13-11-10-8--11--|-------------10--8--6--------|
-------------------------------------|-----------------------------|
-------------------------------------|-----------------------------|


   E  S S S S  S S  E   S S  S S  S S    S S S S S S S S  S  S  S S S S  S  S  
--------------------------------------|---------------------------------------|
------9-8-9-8----9-----10-9-10-9------|------7---9-7--------------------------|
--10----------10---11------------11-9-|--8-9---9-----9-8----------8-9-8-------|
--------------------------------------|------------------11-10-11-------11-10-|
--------------------------------------|---------------------------------------|
--------------------------------------|---------------------------------------|


   S S S S  S S S S  S S S S  S S S S  
-----9-8-9-12-9-8-9----9-8-9-12-9-8-9-|
--10----------------10----------------|
--------------------------------------|
--------------------------------------|
--------------------------------------|
--------------------------------------|


  S S S S  S S S S S  T  T  T  T  S  S  S  S  S    E  S S E  E  E  S S E  E   
----8-6-8-11-8-6-8---17-16-17-16-14-------------|-----9-8-9--------9-8-9-----|
--9----------------9----------------17-16-14-13-|------------9------------9--|
------------------------------------------------|----------------------------|
------------------------------------------------|----------------------------|
------------------------------------------------|----------------------------|
------------------------------------------------|----------------------------|


  W                   
--8-----------------||
--9-----------------||
-------------------*||
-------------------*||
--------------------||
--------------------||
Login or Register to remove this ad.