File Select (Mario & Luigi: Bowser's Inside Story) Guitar Tab

Submitted: Jun 13, 2012 by hslesperance

5
Average: 5 (1 vote)
Download | Listen
Game: Mario & Luigi: Bowser's Inside Story
Composer(s): Yoko Shimomura
Style: 2 or more instruments, Fingerstyle, Transcription
Series: Mario

AutoScroll: Slow | Medium | Fast
File Select
Mario & Luigi: Bowser's Inside Story
Composed by Yoko Shimomura
Tabbed by hslesperance
6/13/12

Standard Tuning


Guitar 1

e---------------------------------------------12-------------------
B---13--13--12--13-15-13-12-13------12-13-15------15--13--12-------
G-------------------------------------------------------------12---
D------------------------------------------------------------------
A------------------------------------------------------------------
E------------------------------------------------------------------

e---15------13-12-13------12---------------------------------------
B----------------------------15-13--12-13-15------12---------12----
G-----------------------------------------------------12--14----14-
D------------------------------------------------------------------
A------------------------------------------------------------------
E------------------------------------------------------------------




Guitar 2

e------------------------------------------------------------------
B------------------------------------------------------------------
G------------------------------0-----0-----0-----0-----------------
D------3-----3-----3-----3--------0-----------0--------------------
A---------3-----------3--------------------------------------------
E---1-----------1-----------3-----------3--------------------------




Guitar 3

e--------1---------------------3-----------------------------------
B---1---------------------3---------0------------------------------
G------------------------------------------------------------------
D------------------------------------------------------------------
A------------------------------------------------------------------
E------------------------------------------------------------------




Guitars 2 & 3 combined

e---------------1-----------------------3--------------------------
B---------1-----------------------3-----------0--------------------
G------------------------------0-----0-----0-----0-----------------
D------3-----3-----3-----3--------0-----------0--------------------
A---------3-----------3--------------------------------------------
E---1-----------1-----------3-----------3--------------------------
Login or Register to remove this ad.