Title (Mario Kart 64) Guitar Tab

Submitted: Oct 04, 2011 by auriplane

5
Average: 5 (1 vote)
Download | Listen
Game: Mario Kart 64
Composer(s): Kenta Nagata
Style: Alternate picking, Transcription
Series: Mario

AutoScroll: Slow | Medium | Fast
                   Mario Kart 64 - Title GUITAR TAB
                        Composed by Kenta Nagata
        
                Tabbed by auriplane ([email protected])


Rest for eight measures at the beginning.

    W                H       Q.    E  Q.    E H        H       E Q.    
e  |----------------|----------------|------10--------|----------------|
B  |8---------------|--------10----8-|7---------------|----------10----|
G  |----------------|----------------|----------------|----------------|
D  |----------------|----------------|----------------|----------------|
A  |----------------|----------------|----------------|----------------|
E  |----------------|----------------|----------------|----------------|

    H       E Q.     H       E Q.     W                H       E E. E.
e 7g8---------7-----|----------7-----|8---------------|----------------|
B  |----------------|10--------------|----------------|8------------7--|
G  |----------------|----------------|----------------|----------10----|
D  |----------------|----------------|----------------|----------------|
A  |----------------|----------------|----------------|----------------|
E  |----------------|----------------|----------------|----------------|
  
    W                H       Q.    E  Q.    E H        H       E Q.
e  |----------------|----------------|------10--------|----------8-----|
B  |8---------------|--------10----8-|7---------------|----------------|
G  |----------------|----------------|----------------|----------------|
D  |----------------|----------------|----------------|----------------|
A  |----------------|----------------|----------------|----------------|
E  |----------------|----------------|----------------|----------------|
  
    Q.    E H        H       E Q.     W                W
e  |12----8---------|7---------10----|8---------------|----------------|
B  |----------------|----------------|----------------|----------------|
G  |----------------|----------------|----------------|----------------|
D  |----------------|----------------|----------------|----------------|
A  |----------------|----------------|----------------|----------------|
E  |----------------|----------------|----------------|----------------|
   
Login or Register to remove this ad.