Staff Roll (Mario Kart 64) Guitar Tab

Submitted: Feb 26, 2018 by FingerstyleGaming

5
Average: 5 (1 vote)
Download | Listen
Game: Mario Kart 64
Composer(s): Kenta Nagata
Style: Arrangement, Artificial harmonics, Fingerstyle, Natural harmonics
Series: Mario

AutoScroll: Slow | Medium | Fast
                                 Staff Roll - Super Mario 64                                   


Nylon Guitar
     H        E  E  S E.     H        E  E  S E.     H        E  E  S E.   
E||--0--------L--0--1-3---|--5--------L--5--3-1---|--0--------L--0--1-3---|
B||--0--------L-----------|-----------------------|--0--------L-----------|
G||--0--------L-----------|--5--------L-----------|--0--------L-----------|
D||-----------------------|--3--------L-----------|-----------------------|
A||--3--------L-----------|-----------------------|--3--------L-----------|
E||-----------------------|-----------------------|-----------------------|


  H        E  E  S  E.     H        E  E  S E.     H        E  E  S E.   
--5-----------7--8-10---|--0--------L--0--1-3---|--5--------7--7----7---|
------------------------|--0--------L-----------|-----------------------|
--5--------7--L--L------|--0--------L-----------|--5--------7--7----7---|
--3--------5--L--L------|-----------------------|--3--------5--5--L-5---|
------------------------|-----------------------|-----------------------|
------------------------|--8--------L-----------|-----------------------|


    E  E  E  E  E  E  E  E     E  E  E  E  E  E  E  E     E  E  E  E  E  E   E  E   
|---0--L--L--0--1--0--1--3--|--0--L--L--L--------0--3--|--5-----5--5--7-----10--8--|
|---------------3--3--3--3--|--1--1--1--1--1--L--------|---------------------------|
|*--0--0--0--0--2--2--2--2--|--0--0--0--0--0--0--0--0--|--5--5--5--5--7--7---7--7--|
|*--2--2--2--2--0--0--0--0--|--2--2--2--2--2--2--2--2--|--3--3--3--3--5--5---5--5--|
|---3--3--3--3--------------|--------------3--3--3--3--|---------------------------|
|---------------------------|--------------------------|---------------------------|


  E  E  E  E  E  E  S E.     E  E  E  E  E  E   E  E     E  E  E  E  E  E  E  E   
--3--L--L--L--L--L--1-3---|--5--L--L--5--7-----10--8--|--3--L--L--L--8--L--------|
--------------------3-1---|---------------------------|--1--1--1--1--5-----------|
--0--0--0--0--0--0----0---|--5--5--5--5--7--7---7--7--|--0--0--0--0--------5--7--|
--2--2--2--2--2--2--0-2---|--3--3--3--3--5--5---5--5--|--2--2--2--2--------------|
--3--3--3--3--3--3--------|---------------------------|--------------3--3--3--3--|
--------------------------|---------------------------|--------------------------|


  E  E  E  E  E  E  E  E     E  E  E  E  E  E  E  E     E  E  E  E  E  E  E  E   
--1--L--1--3--1--0--------|--3--L--L--L--L--L--L--L--|--0--L--L--0--1--0--1--3--|
--3--3--------------3--1--|--1--1--1--1--0--0--0--0--|--------------3--3--3--3--|
--3--3--3--3--3--3--3--3--|--0--0--0--0--0--0--0--0--|--0--0--0--0--2--2--2--2--|
--------------------3--3--|--0-----------------------|--2--2--2--2--0--0--0--0--|
--1--1--1--1--1--1--1--1--|--------------------------|--3--3--3--3--------------|
--------------------------|--------------3-----------|--------------------------|


  E  E  E  E  E  E  E  E     E  E  E  E  E  E   E  E     E  E  E  E  E  E  S E.   
--0--L--L--L--------0--3--|--5-----5--5--7-----10--8--|--3--L--L--L--L--L--1-3---|
--1--1--1--1--1--L--------|---------------------------|--------------------3-1---|
--0--0--0--0--0--0--0--0--|--5--5--5--5--7--7---7--7--|--0--0--0--0--0--0----0---|
--2--2--2--2--2--2--2--2--|--3--3--3--3--5--5---5--5--|--2--2--2--2--2--2--0-2---|
--------------3--3--3--3--|---------------------------|--3--3--3--3--3--3--------|
--------------------------|---------------------------|--------------------------|


  E  E  E  E  E  E   E  E     E  E  E  E  E  E  E   E      E   E   E   E  E  E  E  E   
--5--L--L--5--7-----10--8--|--3--L--L--L--8-----8--10--|--13---L--12---L--7--L--L--8--|
---------------------------|--1--1--1--1--8--8--8---8--|------------------------------|
--5--5--5--5--7--7---7--7--|--0--0--0--0--9--9--9---9--|------------------0--0--0--0--|
--3--3--3--3--5--5---5--5--|--2--2--2--2---------------|---0---0---0---0--------------|
---------------------------|---------------------------|------------------------------|
---------------------------|--------------8--8--8---8--|------------------------------|


                                                           NH    
  E  E  E  E  E  E  E  E       E    E    E    E    Q       Q     
--8-----------------------|-----------------------------<>12----|
--8-----------------------|--<>1--<>L--<>L--<>3--<>L------------|
--9-----------------------|--------------4----------------------|
--------------------------|---------2---------------------------|
--------------------------|-------------------------------------|
--8--8--8--8--8--8--8--8--|----1--------------------------------|


     NH          NH    NH     NH                    NH    NH           
     E  E  E     E     Q      Q         E  E  E     E     Q      Q     
-----------------------------------|----------------------------------|
--<>12-----------------------------|-------------<>12---<>L----<>1----|
-----------0--<>12---<>L-----------|--<>2-----------------------------|
--------0--------------------------|----------2-----------------------|
----------------------------<>7----|-------3--------------------------|
-----3-----------------------------|----1-----------------------------|


     NH    NH    NH    NH    NH                                                          
     E     E     E     E     H           E  E  E  E  Q    Q       E  E  E  E  Q    Q     
--------------------------------------|-----------3--L----5----|-----------7--L----8----|
--------------------------------------|--6--L--L---------------|--8--L--L---------------|
--<>12---<>L---<>L---<>L---<>L--------|--------7---------------|--------0---------------|
-----------------------2-----L--------|-----3------------------|------------------------|
-----------------3--------------------|--5---------------------|-----7------------------|
-----0-----3--------------------------|------------------------|--0---------------------|


  E  E  E  E  Q    Q        E   E  E  E  H           E  E  E  E  E  E  E  E   
--5----------------8----|--10---------------------|--0-----0--1--3--L--------|
-----------5--L---------|---0---------------------|--1--3--1--3--5--L--5--3--|
--------5---------------|---0---------------------|-----4--------------5--4--|
-----7------------------|----------7--9--L--------|--------------------------|
--8---------------------|------10-----------------|--3--3--3--3--2--2--2--2--|
------------------------|-------------------------|--------------------------|


  E  E  E  E  E  E  E  E      E  E   E   E  E  E  E   E     E  E  E  E  E  E  E  E   
--------------------0--3--|-----------------8--L---------|--------------------------|
--3--L--L--1--1--L--1--1--|--10--8--10--12--------8------|--5--L--L--6--3--L--L--L--|
--4--L--L--0--0--L--------|--10--9--10--10--9--L--9--10--|--5--L--L--7--4--L--L--L--|
--------------------------|------------------------------|--------------------------|
--0--0--0--0--------------|---8--8---8---8--7--7--7---7--|--5--5--5--5--------------|
--------------3--3--3--3--|------------------------------|--------------3--3--3--3--|


  E  E  E  E  E  E  E  E     E  E  E  E  E  E  E  E      E  E   E   E  E  E  E   E   
--0-----0--1--3--L--------|--------------------0--3--|-----------------8--L---------|
--1--3--1--3--5--L--5--3--|--3--L--L--1--1--L--1--1--|--10--8--10--12--------8------|
-----4--------------5--4--|--4--L--L--0--0--L--------|--10--9--10--10--9--L--9--10--|
--------------------------|--------------------------|------------------------------|
--3--3--3--3--2--2--2--2--|--0--0--0--0--------------|---8--8---8---8--7--7--7---7--|
--------------------------|--------------3--3--3--3--|------------------------------|


   E  E  E  E  E  E  E  E       E  E  E  E  E  E  E  E     E  E  E  E  E  E  E  E   
---------------3--L---------||--------------4--L--------|-----------------------4--|
------5--------3--L---------||--6--4--6--7--6--L--6--4--|--4--L--L-----------6--6--|
--10--5--7--5--4--L--------*||--6--5--6-----------6--5--|--5--L--L--6--6--L--6-----|
---------9--5--------5--L--*||--------------------------|-----------6--6--L--------|
---5--5--5--5---------------||--4--4--4--4--3--3--3--3--|--------------------------|
---------------3--3--3--3---||--------------------------|--6--6--6--6--4--4--4--4--|


   E   E   E   E   E   E   E   E     E  E  E  E  E  E  E  E     E  E  E  E  E  E  E  E   
-------------------9---L----------|--------------------------|--------------4--L--------|
--11---9--11--13-----------9------|--6--L--L--7--4--L--L--L--|--6--4--6--7--6--L--6--4--|
--11--10--11--11--10---L--10--11--|--6--L--L--8--5--L--L--L--|--6--5--6-----------6--5--|
----------------------------------|--------------------------|--------------------------|
---9---9---9---9---8---8---8---8--|--6--6--6--6--------------|--4--4--4--4--3--3--3--3--|
----------------------------------|--------------4--4--4--4--|--------------------------|


  E  E  E  E  E  E  E  E      E   E   E   E   E   E   E   E      E  E   E  E  E  E  E  E   
-----------------------4--|-------------------9---L----------|----------------4--L--------|
--4--L--L-----------6--6--|--11---9--11--13-----------9------|------6---------4--L--------|
--5--L--L--6--6--L--6-----|--11--10--11--11--10---L--10--11--|--11--6---8--6--5--L--5--L--|
-----------6--6--L--------|----------------------------------|---------10--6--------4--L--|
--------------------------|---9---9---9---9---8---8---8---8--|---6--6---6--6--------------|
--6--6--6--6--4--4--4--4--|----------------------------------|----------------4--4--4--4--|


  H        E  E  S E.     H        E  E  S E.     H        E  E  S E.   
-------------------4---|--6--------L--6--4-----|-------------------4---|
--6--------L--6--7-----|-------------------7---|--6--------L--6--7-----|
--6--------------------|--6--------L-----------|--6--------------------|
--6--------L-----------|--4--------L-----------|--6--------L-----------|
--4--------L-----------|-----------------------|--4--------L-----------|
-----------------------|-----------------------|-----------------------|


                                                                        ^                  
  H        E  E  S E.     H        E  E  S E.     H        H            W                  
--6--------L--6--4-----|-------------------4---|--6--------9--------|---9----------------||
-------------------7---|--6--------L--6--7-----|--------------------|---9----------------||
--6--------L-----------|--6--------------------|--6-----------------|--10----------------||
--4--------L-----------|--6--------L-----------|--4--------7--------|--11----------------||
-----------------------|--4--------L-----------|-----------9--------|--11----------------||
-----------------------|-----------------------|--------------------|---9----------------||




Duration Legend
---------------
W - whole
H - half
Q - quarter
E - 8th
S - 16th
T - 32nd
X - 64th
. - note dotted
|-n-|  - n-tuplets


Tablature Legend
----------------
L - tied note
x - dead note
g - grace note
(n) - ghost note
> - accentuded note
NH - natural harmonic
AH - artificial harmonic
TH - tapped harmonic
SH - semi harmonic
PH - pitch harmonic
h - hammer on
p - pull off
b - bend
br - bendRelease
pb - preBend
pbr - preBendRelease
brb - bendReleaseBend
\n/ - tremolo bar dip
\n - tremolo bar dive
-/n - tremolo bar Release up
/n\ - tremolo bar inverted dip
/n - tremolo bar return
-\n - tremolo bar Release down
S - shift slide
s - legato slide
/ -  slide into from below or out of upwards
\ -  slide into from above or out of downwards
~ - vibrato
W - wide vibrato
tr - trill
TP - tremolo picking
T - tapping
S - slap
P - pop
< - fade in
^ - brush up
v - brush down
Login or Register to remove this ad.