Login or Register to remove this ad.

Rainbow Road (Mario Kart 64) Guitar Tab

Submitted: Oct 05, 2011 by auriplane (Last updated: Oct 05, 2011)

4.666665
Average: 4.7 (3 votes)
Download | Listen
Game: Mario Kart 64
Composer(s): Kenta Nagata
Style: 2 or more instruments, Alternate picking, Transcription
Series: Mario

AutoScroll: Slow | Medium | Fast
                Mario Kart 64 - Rainbow Road GUITAR TAB
                       Composed by Kenta Nagata
       
                Tabbed by auriplane ([email protected])
 

Rest for four measures at the beginning.


                            MELODY GUITAR

        Part A

e |--------------------------------|--------------------------------| \
B |--------------------------------|--------------------------------|  \
G |----------------16----------16--|------------------------161816--|   |
D |------------14----------14------|--------------------------------|   |
A |--------------------------------|--------------------------------|   |
E |--------------------------------|--------------------------------|   |
                                                                        |
e |--------------------------------|--------------------------------|   |
B |--------------------------------|--------------------------------|   |
G |------------14------------------|----------------16--------------|   |
D |----------------18------16--14--|------------14------------------|   |
A |--------------------------------|--------------------------------|   |
E |--------------------------------|--------------------------------|    \
                                                                          > x2
e |----------------------------17--|--------------------------------|    /
B |----------------14------17------|--------------------------------|   |
G |------------14------------------|--------------------------------|   |
D |--------------------------------|--------------------------------|   |
A |--------------------------------|--------------------------------|   |
E |--------------------------------|--------------------------------|   |
                                                                        |
e |--------------------------------|--------------------------------|   |
B |17------------------------------|--------------------------------|   |
G |--------------------------------|--------------------------------|   |
D |--------------------------------|--------------------------------|   |
A |--------------------------------|--------------------------------|  /
E |--------------------------------|--------------------------------| /

        Part B

e |--------------------------------|----------------------------17--|
B |------------17--15------14------|--------------------------------|
G |----------------------------16--|------------14----------14------|
D |--------------------------------|--------------------------------|
A |--------------------------------|--------------------------------|
E |--------------------------------|--------------------------------|
                                                                     
e |----------------16----17----19--|19----------17--17--------------|
B |--------------------------------|--------------------------------|
G |--------------------------------|--------------------------------|
D |--------------------------------|--------------------------------|
A |--------------------------------|--------------------------------|
E |--------------------------------|--------------------------------|
                                                                     
e |--------------------------------|--------------------------------|
B |------------17--17--------------|----------------15----14--------|
G |--------------------------------|----------------------------14--|
D |--------------------------------|--------------------------------|
A |--------------------------------|--------------------------------|
E |--------------------------------|--------------------------------|
                                                                     
e |--------------------------------|--------------------------------|
B |--------------------------------|--------------------------------|
G |16------------------------------|--------------------------------|
D |--------------------------------|--------------------------------|
A |--------------------------------|--------------------------------|
E |--------------------------------|--------------------------------|

        Part B'

e |--------------------------------|----------------------------17--|
B |------------17--15------14------|--------------------------------|
G |----------------------------16--|------------14--14------14------|
D |--------------------------------|--------------------------------|
A |--------------------------------|--------------------------------|
E |--------------------------------|--------------------------------|
                                                                     
e |----------------16----17----19--|19----------17--17------19--21--|
B |--------------------------------|--------------------------------|
G |--------------------------------|--------------------------------|
D |--------------------------------|--------------------------------|
A |--------------------------------|--------------------------------|
E |--------------------------------|--------------------------------|
                                                                     
e |--------------------------------|----------------22----21--------|
B |--------------------------------|----------------------------22--|
G |--------------------------------|--------------------------------|
D |--------------------------------|--------------------------------|
A |--------------------------------|--------------------------------|
E |--------------------------------|--------------------------------|
                                                                     
e |19------------------------------|--------------------------------|
B |--------------------------------|--------------------------------|
G |--------------------------------|--------------------------------|
D |--------------------------------|--------------------------------|
A |--------------------------------|--------------------------------|
E |--------------------------------|--------------------------------|

e |17------------------------------|--------------------------------|
B |--------------------------------|--------------------------------|
G |--------------------------------|--------------------------------|
D |--------------------------------|--------------------------------|
A |--------------------------------|--------------------------------|
E |--------------------------------|--------------------------------|

e |--------------------------------|--------------------------------|
B |--------------------------------|--------------------------------|
G |--------------------------------|--------------------------------|
D |--------------------------------|--------------------------------|
A |--------------------------------|--------------------------------|
E |--------------------------------|--------------------------------|






                            HARMONY GUITAR

    Part A harmony (second time only)

e |--------------------------------|--------------------------------|
B |--------------------------------|--------------------------------|
G |----------------14----------13--|------------------------131413--|
D |--------------------------------|--------------------------------|
A |------------14----------14------|--------------------------------|
E |--------------------------------|--------------------------------|
                                                                     
e |--------------------------------|--------------------------------|
B |--------------------------------|--------------------------------|
G |--------------------------------|--------------------------------|
D |------------16--14--------------|----------------14--------------|
A |------------------------14--14--|------------14------------------|
E |--------------------------------|--------------------------------|
                                                                     
e |----------------------------14--|--------------------------------|
B |------------------------14------|--------------------------------|
G |----------------14--------------|--------------------------------|
D |------------14------------------|--------------------------------|
A |--------------------------------|--------------------------------|
E |--------------------------------|--------------------------------|
                                                                     
e |--------------------------------|--------------------------------|
B |14------------------------------|--------------------------------|
G |--------------------------------|--------------------------------|
D |--------------------------------|--------------------------------|
A |--------------------------------|--------------------------------|
E |--------------------------------|--------------------------------|



        Part B' harmony

e |--------------------------------|--------------------------------|
B |------------14------------------|----------------------------17--|
G |----------------16------14------|--------------------------------|
D |----------------------------16--|------------16--14------14------|
A |--------------------------------|--------------------------------|
E |--------------------------------|--------------------------------|
                                                                     
e |----------------------14----14--|16----------14--14------16--17--|
B |----------------17--------------|--------------------------------|
G |--------------------------------|--------------------------------|
D |--------------------------------|--------------------------------|
A |--------------------------------|--------------------------------|
E |--------------------------------|--------------------------------|
                                                                     
e |--------------------------------|----------------17----17--------|
B |--------------------------------|----------------------------17--|
G |--------------------------------|--------------------------------|
D |--------------------------------|--------------------------------|
A |--------------------------------|--------------------------------|
E |--------------------------------|--------------------------------|
                                                                     
e |14------------------------------|--------------------------------|
B |--------------------------------|17------------------------------|
G |--------------------------------|--------------------------------|
D |--------------------------------|--------------------------------|
A |--------------------------------|--------------------------------|
E |--------------------------------|--------------------------------|

e |--------------------------------|--------------------------------|
B |18------------------------------|--------------------------------|
G |--------------------------------|--------------------------------|
D |--------------------------------|--------------------------------|
A |--------------------------------|--------------------------------|
E |--------------------------------|--------------------------------|

e |--------------------------------|--------------------------------|
B |--------------------------------|--------------------------------|
G |--------------------------------|--------------------------------|
D |--------------------------------|--------------------------------|
A |--------------------------------|--------------------------------|
E |--------------------------------|--------------------------------|


Login or Register to remove this ad.

1 comment on Rainbow Road

Thx!