Moo Moo Farm (Mario Kart 64) Bass Tab

Submitted: Oct 03, 2011 by auriplane

5
Average: 5 (2 votes)
Download | Listen
Game: Mario Kart 64
Composer(s): Kenta Nagata
Style: Transcription
Series: Mario

AutoScroll: Slow | Medium | Fast
                 Mario Kart 64 - Moo Moo Farm BASS TAB
                       Composed by Kenta Nagata
       
                Tabbed by auriplane ([email protected])
 

This song also plays in Yoshi Valley.

Four-string bass, standard tuning.

        Intro

G |----------------|----2-3-4-------|
D |5--5-------5----|---5------------|
A |----------------|----------------|
E |--------3-------|33--------------|

        Part A

G |5-------5-------|5-------5-------|5-------5-------|----------------|
D |----5-------5---|----5-------5---|----5-------5---|5-------5-------|
A |----------------|----------------|----------------|----5-------5---|
E |----------------|----------------|----------------|----------------|

G |5-------5-------|----------------|----------------|------------2-4-|
D |----5-------5---|3-------3-------|5-------5-------|5-------5-5-----|
A |----------------|----3-------3---|----5-------5---|----5-----------|
E |----------------|----------------|----------------|----------------|

G |5-------5-------|5-------5-------|5-------5-------|----------------|
D |----5-------5---|----5-------5---|----5-------5---|5-------5-------|
A |----------------|----------------|----------------|----5-------5---|
E |----------------|----------------|----------------|----------------|

G |5-------5-------|----------------|----------------|5---------------|
D |----5-------5---|3-------3-------|5-------5-------|----5---------2-|
A |----------------|----3-------3---|----5-------5---|--------3-3-5---|
E |----------------|----------------|----------------|----------------|

        Part B

G |----------------|----------------|----------------|----------------|
D |3-------3-------|3-------3-------|3-------3-------|3-------3-------|
A |----3-------3---|----3-------3---|----3-------3---|----3-------3---|
E |----------------|----------------|----------------|----------------|

G |----------------|----------------|----------------|--------------2-|
D |3-------3-------|3-------3-------|3-------3-------|3-------3-3-5---|
A |----3-------3---|----3-------3---|----3-------3---|----3-----------|
E |----------------|----------------|----------------|----------------|

G |3-------2-------|--------------2-|3-----------7---|5-------------2-|
D |----3-------3---|5-------3-3-5---|----3---7-------|--------3-3-5---|
A |----------------|----3-----------|----------------|----3-----------|
E |----------------|----------------|----------------|----------------|

G |3-------2-------|--------------2-|3-------2-------|----------------|----------------|
D |----3-------3---|5-------3-3-5---|----3-------3---|55-5------------|55-5------------|
A |----------------|----3-----------|----------------|----------------|----------------|
E |----------------|----------------|----------------|--------33-3----|--------33-3----|

        Repeat back to Part A.

Login or Register to remove this ad.

4 comments on Moo Moo Farm

Mooooo!!!!

5

Mooooo!!!!

Thanks a lot for tabbing

Thanks a lot for tabbing songs from Mario Kart 64 !!! I love that game and its music ^^

Oh!! Me too. Actually, it's

Oh!! Me too. Actually, it's funny. I was tabbing a short song from the SNES Mario Kart, because soundsandstuff and I were playing it. And when I looked up the Youtube link to post the video, it was in a playlist, and the next thing in the playlist was Mario Kart 64 music.

And I was like, "I can't NOT tab this". So I did. Then I did four more.

Peachy!

THE END

^-^

^-^