Login or Register to remove this ad.

Frappe Snowland (Mario Kart 64) Guitar Tab

Submitted: Oct 05, 2011 by auriplane

0
Download | Listen
Game: Mario Kart 64
Composer(s): Kenta Nagata
Style: Alternate picking, Transcription
Series: Mario

AutoScroll: Slow | Medium | Fast
              Mario Kart 64 - Frappe Snowland GUITAR TAB
                       Composed by Kenta Nagata

                Tabbed by auriplane ([email protected])


Rest for four measures at the beginning.

        Part A

e |----------8---------------------|--------------------------------|
B |----5-6-8-----8-----------------|------------6---5---6-5---------|
G |--------------------------------|--------------------------5-----|
D |--------------------------------|------------------------------5-|
A |--------------------------------|--------------------------------|
E |--------------------------------|--------------------------------|

e |--------------------------------|--------------------------------|
B |--------------------------------|--------------------------------|
G |--------------------------------|--------------------------------|
D |7-5-----------------------------|--------------------------------|
A |--------------------------------|--------------------------------|
E |--------------------------------|--------------------------------|

e |----------8---------------------|--------------------------------|
B |----5-6-8-----8-----------------|------------6---5---6-5---------|
G |--------------------------------|--------------------------5---5-|
D |--------------------------------|--------------------------------|
A |--------------------------------|--------------------------------|
E |--------------------------------|--------------------------------|

e |--------------------------------|--------------------------------|
B |--------------------------------|--------------------------------|
G |7-5-----------------------------|--------------------------------|
D |--------------------------------|--------------------------------|
A |--------------------------------|--------------------------------|
E |--------------------------------|--------------------------------|

        Part A'

e |----------8---------------------|--------------------------------|
B |----5-6-8-----8-----------------|------------6---5---6-5---------|
G |--------------------------------|--------------------------5-----|
D |--------------------------------|------------------------------5-|
A |--------------------------------|--------------------------------|
E |--------------------------------|--------------------------------|

e |--------------------------------|--------------------------------|
B |--------------------------------|--------------------------------|
G |--------------------------------|--------------------------------|
D |7-5-----------------------------|--------------------------------|
A |--------------------------------|--------------------------------|
E |--------------------------------|--------------------------------|

e |----------8---------------------|--------------------------------|
B |----5-6-8-----8-----------------|------------6---5---6-5---------|
G |--------------------------------|--------------------------5---5-|
D |--------------------------------|--------------------------------|
A |--------------------------------|--------------------------------|
E |--------------------------------|--------------------------------|

e |--------------------------------|--------------------------------|
B |8-------------------------------|--------------------------------|
G |--------------------------------|--------------------------------|
D |--------------------------------|--------------------------------|
A |--------------------------------|--------------------------------|
E |--------------------------------|--------------------------------|

        Part B

e |--------8-12--10------------8---|--------------------------------|
B |----1012------------------------|12--108-------------------------|
G |--------------------------------|--------------------------------|
D |--------------------------------|--------------------------------|
A |--------------------------------|--------------------------------|
E |--------------------------------|--------------------------------|

e |--------------------------------|--------------------------------|
B |--------8-10--8-----------------|------8-------------------------|
G |----9-10--------------------10--|9---10--------------------------|
D |--------------------------------|--------------------------------|
A |--------------------------------|--------------------------------|
E |--------------------------------|--------------------------------|

e |--------8-12--10------------8---|----108-------------------------|
B |----1012------------------------|12------------------------------|
G |--------------------------------|--------------------------------|
D |--------------------------------|--------------------------------|
A |--------------------------------|--------------------------------|
E |--------------------------------|--------------------------------|

e |12------12--10------------------|17------1715----19--------------|
B |--------------------------------|------------1817----------------|
G |--------------------------------|--------------------------------|
D |--------------------------------|--------------------------------|
A |--------------------------------|--------------------------------|
E |--------------------------------|--------------------------------|

Login or Register to remove this ad.