Login or Register to remove this ad.

Frappe Snowland (Mario Kart 64) Bass Tab

Submitted: Oct 03, 2011 by auriplane

0
Download | Listen
Game: Mario Kart 64
Composer(s): Kenta Nagata
Style: Transcription
Series: Mario

AutoScroll: Slow | Medium | Fast
               Mario Kart 64 - Frappe Snowland BASS TAB
                       Composed by Kenta Nagata
       
                Tabbed by auriplane ([email protected])
 

Four-string bass, standard tuning.

        Intro

G |----------------|----------------|----------------|----------------|
D |----------------|2---------------|----------------|2---------------|
A |3-------5-------|--------5-------|3-------5-------|--------5------2|
E |----3-------3---|----3-------3---|----3-------3---|----3-------3-5-|

        Part A

G |----------------|----------------|----------------|----------------|
D |----------------|2---------------|----------------|2---------------|
A |3-------5-------|--------5-------|3-------5-------|--------5------2|
E |----3-------3---|----3-------3---|----3-------3---|----3-------3-5-|

G |----------------|----------------|----------------|----------------|
D |----------------|2---------------|----------------|2---------------|
A |3-------5-------|--------5-------|3-------5-------|--------5-------|
E |----3-------3---|----3-------3---|----3-------3---|----3-------3---|

G |----------------|----------------|----------------|----------------|
D |----------------|2---------------|----------------|2---------------|
A |3-------5-------|--------5-------|3-------5-------|--------5------2|
E |----3-------3---|----3-------3---|----3-------3---|----3-------3-5-|

G |----------------|----------------|----------------|----------------|
D |----------------|2---------------|2---2---1---1---|--------5-------|
A |3-------5-------|--------5-------|----------------|5---5-----------|
E |----3-------3---|----3-------3---|----------------|------------3---|

        Part B

G |----------------|--------2---2---|----------------|----------------|
D |3---3-----------|2---2-----------|--------5---5---|--------5---4---|
A |--------2---2---|----------------|5---5-----------|3---3-----------|
E |----------------|----------------|----------------|----------------|

G |--------4---4---|--------2---2---|--------2-------|----------------|
D |3---3-----------|2---2-----------|----------------|5---5-------5---|
A |----------------|----------------|5---5-------5---|----------------|
E |----------------|----------------|----------------|--------3-------|

G |----------------|----------------|----------------|----------------|
D |----------------|2---------------|----------------|2---------------|
A |3-------5-------|--------5-------|3-------5-------|--------5------2|
E |----3-------3---|----3-------3---|----3-------3---|----3-------3-5-|

G |----------------|----------------|----------------|----------------|
D |----------------|2---------------|----------------|2---------------|
A |3-------5-------|--------5-------|3-------5-------|--------5-------|
E |----3-------3---|----3-------3---|----3-------3---|----3-------3---|

        Repeat back to Part A.

Login or Register to remove this ad.