Ads

Pastel Pure (Maria-sama ga Miteru) Guitar Tab

Submitted: Jun 23, 2016 by tomorning

5
Average: 5 (3 votes)
Download | Listen
Game: Maria-sama ga Miteru
Composer(s): Mikiya Katakura
Style: Arrangement, Fingerstyle

AutoScroll: Slow | Medium | Fast
                                 Pastel Pure - TV ver -                                   
                   ~from anime "Maria sama ga miteru ( マリア様が見てる )" ~

Music by Mikiya Katakura (片倉 三起也) / ARI PROJECT
arranged by to*morning


6th = F (F A D G B E)

 Moderato

      Q     Q    Q       H.              Q    Q    Q       H.            
E||--10----10----8----|--3------------|--5----5---------|---------------|
B||--10---------------|--4------------|------------6----|--3------------|
G||-------------------|--4------------|--6--------------|--2------------|
D||---8---------------|--3------------|--5--------------|--3------------|
A||-------------------|---------------|--6--------------|--2------------|
F||-------------------|---------------|-----------------|---------------|


  >                   >                   >                                  
  E  E  E  E  Q       E  E  E  E  Q       E  E  E  E  E  E     H.            
-------------------|--5----------------|--1-----------------|---------------|
--3--------2--3----|--------------5----|--------1-----------|---------------|
--------0----------|--------3-----3----|-----------2--------|---------------|
-----0-------------|-----5-----5-------|-----3--------3-----|---------------|
-------------------|--3----------------|-----------------3--|---------------|
--2----------------|-------------------|--0-----------------|--0------------|


  >                     >                                                                
  E  E  E  E  E  E      E   E   E   E   E   E     E  E  E  E  Q       E  E  E  E  E  E   
--5-----------5-----|--10----------------------|--------------6----|--5-----------------|
-----------6-----6--|------------------13------|--8--------5--8----|--------6-----------|
--------5-----------|----------10--12------12--|--------5----------|-----------5-----5--|
-----7--------------|------10------------------|-----7-------------|-----7--------------|
--------------------|--------------------------|-------------------|--------------7-----|
--0-----------------|---0----------------------|--0----------------|--0-----------------|


  E  E  E  T  T  S E  E     E  E  E  E  E  E     E  E   E  E  E   E     E  E  E  E  Q     
--1--------0h-1p-0-0--1--|--6-----------6-----|----------------------|-------------------|
--------3----------3-----|-----------3--------|--5------------3h--5--|--1-----------1----|
-----2-------------------|--------3--------3--|------------3---------|--------0----------|
--0----------------------|-----3--------------|-----3h--5------------|-----2-----2-------|
-------------------------|--------------------|--3-------------------|--3----------------|
-------------------------|--5-----------------|----------------------|-------------------|


  E  E  E  E  E  E      E   E   E   E   E   E     E  E  E  E  Q       E  E  E  E  E  E   
--5-----------5-----|--10----------------------|--------------6----|--5-----------------|
-----------6-----6--|------------------13------|--8--------5--8----|--------6-----------|
--------5-----------|----------10--12------12--|--------5----------|-----------5-----5--|
-----7--------------|------10------------------|-----7-------------|-----7--------------|
--------------------|--------------------------|-------------------|--------------7-----|
--0-----------------|---0----------------------|--0----------------|--0-----------------|


  E  E  E  T  T  S E  E     E  E  E  E  E  E     E  E  Q    E  E     Q    H         
--1--------0h-1p-0-0--1--|--6-----------------|--0-----5----0-----|-------5--------|
--------3----------3-----|-----------3--6-----|----------------1--|--3----6--------|
-----2-------------------|--------3--------3--|--------5----------|--2----7--------|
--0----------------------|-----3--------------|-----5-------------|--0-------------|
-------------------------|--------------------|--0----------------|----------------|
-------------------------|--5-----------------|-------------------|----------------|


  E  E  E  E  E  E     Q    Q    Q       E  E  E  E  E  E     Q    Q    Q     
--------------------|-------3---------|--------------------|-----------------|
--3--------4--3--4--|--3---------3----|--3--------4--3--4--|--3--------------|
--------3-----3-----|-------3----3----|--------3-----3-----|--3----3---------|
-----5--------5-----|--5---------5----|-----3--------3-----|-------3----3----|
--6-----------------|-----------------|--5-----------------|------------5----|
--------------------|-----------------|--------------------|-----------------|


  E  E  E  E  E  E     Q    Q    Q       E  E  E  E  E  E     Q    Q     
--------------------|-------1----3----|--------------------|------------|
--1--------2--1--2--|--1---------2----|--1--------1--------|------------|
--------1-----1-----|--1---------1----|--------0--------0--|--0---------|
-----3--------3-----|--3--------------|-----3--------3-----|--2---------|
--4-----------------|--4--------------|--3-----------------|-------3----|
--------------------|-----------------|--------------------|------------|


  E  E  E  E  E  E     E  E  E  E  E  E      E  E  E   E  Q       E  E  E  E  E  E   
--5--------5--6--5--|--5--------5--6--5--|--10-----------------|--3-----------------|
--------6-----6-----|--------4-----4-----|------7--8--10--8----|--------0-----------|
-----5--------5-----|-----5--------5-----|---0-----------------|-----------0-----0--|
--------------------|--4-----------------|---------------------|-----0--------0-----|
--------------------|--------------------|---------------------|--------------------|
--0-----------------|--------------------|---------------------|--2-----------------|


  E  E  E  E  E  E     E  E  E  E  E  E     E  E  E  E  Q       E  E  E  E  Q     
--3--------3--5--3--|--6--------6--5-----|-------------------|--5----------------|
--------5-----------|-----------------5--|--6--------6-------|-----------6-------|
-----5--------------|--------5-----------|--------5-----5----|--------5-----5----|
--------------5-----|-----7--------------|-----7-------------|-----7-------------|
--3-----------------|--6-----------------|--5----------------|-------------------|
--------------------|--------------------|-------------------|--7----------------|


   Q     Q     Q       E  E  E  E   Q       Q    Q    Q       H        Q     
--10----10-----8----|--------------------|--5----5---------|-----------5----|
--10----------------|--8-----------11----|--5---------6----|--3-------------|
--------------10----|--------9-----------|------------5----|--2-------------|
---8----------------|-----8-----8--------|------------7----|--3-------------|
--------------------|--------------------|--8--------------|--2-------------|
--------------------|--8-----------------|-----------------|----------------|


  E  E  E  E  Q       H        Q       E  E  E  E  E  E     E  E  E  E  E  E     Q      
--3----------------|--5--------0----|--1-----------------|--------------------|-------||
-----------3-------|----------------|-----------1--------|-----------1--------|--1----||
--------3-----3----|--0-------------|--------2-----2-----|--------3-----3-----|--2----||
-----0-------------|--2-------------|-----3-----------3--|-----3-----------3--|--3----||
-------------------|--3-------------|--------------------|--------------------|-------||
--2----------------|----------------|--0-----------------|--0-----------------|--0----|| fine...

Login or Register to remove this ad.

2 comments on Pastel Pure

rev.2 Q Q Q

rev.2

      Q     Q    Q       H.              Q    Q    Q       H.            
E||--10----10----8----|--3------------|--5----5---------|---------------|
B||--10---------------|--4------------|------------6----|--3------------|
G||-------------------|--4------------|--6--------------|--2------------|
D||---8---------------|--3------------|--5--------------|--3------------|
A||-------------------|---------------|--6--------------|--2------------|
F||-------------------|---------------|-----------------|---------------|


  >                   >                   >                                  
  E  E  E  E  Q       E  E  E  E  Q       E  E  E  E  E  E     H.            
-------------------|--5----------------|--1-----------------|---------------|
--3--------2--3----|--------------5----|--------1-----------|---------------|
--------0----------|--------3-----3----|-----------2--------|---------------|
-----0-------------|-----5-----5-------|-----3--------3-----|---------------|
-------------------|--3----------------|-----------------3--|---------------|
--2----------------|-------------------|--0-----------------|--0------------|


  >                     >                                                                
  E  E  E  E  E  E      E   E   E   E   E   E     E  E  E  E  Q         E  E  E  E  E  E   
--5-----------5-----|--10----------------------|--------------6------|--5-----------------|
-----------6-----6--|------------------13------|--8--------5----(8)--|--------6--------1--|
--------5-----------|----------10--12------12--|--------5------------|-----------5--------|
-----7--------------|------10------------------|-----7---------------|-----7--------2-----|
--------------------|--------------------------|---------------------|--------------------|
--0-----------------|---0----------------------|--0------------------|--0-----------------|


  E  E  E  T  T  S E  E     E  E  E  E  E  E     E  E   E  E  E   E     E  E  E  E  Q     
--1--------0h-1p-0-0--1--|--6-----------6-----|----------------------|-------------------|
--------3----------3-----|-----------3--------|--5------------3h--5--|--1-----------1----|
-----2-------------------|--------3--------3--|------------3---------|--------0----------|
--0----------------------|-----3--------------|-----3h--5------------|-----2-----2-------|
-------------------------|--------------------|--3-------------------|--3----------------|
-------------------------|--5-----------------|----------------------|-------------------|


  E  E  E  E  E  E      E   E   E   E   E   E     E  E  E  E  Q         E  E  E  E  E  E   
--5-----------5-----|--10----------------------|--------------6------|--5-----------------|
-----------6-----6--|------------------13------|--8--------5----(8)--|--------6--------1--|
--------5-----------|----------10--12------12--|--------5------------|-----------5--------|
-----7--------------|------10------------------|-----7---------------|-----7--------2-----|
--------------------|--------------------------|---------------------|--------------------|
--0-----------------|---0----------------------|--0------------------|--0-----------------|


  E  E  E  T  T  S E  E     E  E  E  E  E  E     E  E  Q    E  E     Q    H         
--1--------0h-1p-0-0--1--|--6-----------------|--------5----------|-------5--------|
--------3----------3-----|-----------3--6-----|--5----------5-----|-------6--------|
-----2-------------------|--------3--------3--|--------5-------5--|--7----7--------|
--0----------------------|-----3--------------|-----5-------------|--7-------------|
-------------------------|--------------------|--0----------------|--5-------------|
-------------------------|--5-----------------|-------------------|----------------|


  E  E  E  E  E  E     Q    Q    Q       E  E  E  E  E  E     Q    Q    Q     
--------------------|-------3---------|--------------------|-----------------|
--3--------4--3--4--|--3---------3----|--3--------4--3--4--|--3--------------|
--------3-----3-----|-------3----3----|--------3-----3-----|--3----3---------|
-----5--------5-----|--5---------5----|-----3--------3-----|-------3----3----|
--6-----------------|-----------------|--5-----------------|------------5----|
--------------------|-----------------|--------------------|-----------------|


  E  E  E  E  E  E     Q    Q    Q       E  E  E  E  E  E     Q    Q     
--------------------|-------1----3----|--------------------|------------|
--1--------2--1--2--|--1---------2----|--1--------1--------|------------|
--------1-----1-----|--1---------1----|--------0--------0--|--0---------|
-----3--------3-----|--3--------------|-----3--------3-----|--2---------|
--4-----------------|--4--------------|--3-----------------|-------3----|
--------------------|-----------------|--------------------|------------|


  E  E  E  E  E  E     E  E  E  E  E  E      E  E  E   E  Q       E  E  E  E  E  E   
--5--------5--6--5--|--5--------5--6--5--|--10-----------------|--3-----------------|
--------6-----6-----|--------4-----4-----|------7--8--10--8----|--------0-----------|
-----5--------5-----|-----5--------5-----|---0-----------------|-----------0-----0--|
--------------------|--4-----------------|---------------------|-----0--------0-----|
--------------------|--------------------|---------------------|--------------------|
--0-----------------|--------------------|---------------------|--2-----------------|


  E  E  E  E  E  E     E  E  E  E  E  E     E  E  E  E  Q       E  E  E  E  Q     
--3--------3--5--3--|--6--------6--5-----|-------------------|--5----------------|
--------5-----------|-----------------5--|--6--------6-------|-----------6-------|
-----5--------------|--------5-----------|--------5-----5----|--------5-----5----|
--------------5-----|-----7--------------|-----7-------------|-----7-------------|
--3-----------------|--6-----------------|--5----------------|-------------------|
--------------------|--------------------|-------------------|--7----------------|


   Q     Q     Q       E  E  E  E   Q       Q    Q    Q       H        Q     
--10----10-----8----|--------------------|--5----5---------|-----------5----|
--10----------------|--8-----------11----|--5---------6----|--3-------------|
--------------10----|--------9-----------|------------5----|--2-------------|
---8----------------|-----8-----8--------|------------7----|--3-------------|
--------------------|--------------------|--8--------------|--2-------------|
--------------------|--8-----------------|-----------------|----------------|


  E  E  E  E  Q       H        Q       E  E  E  E  E  E     E  E  E  E  E  E     Q      
--3----------------|--5--------0----|--1-----------------|--------------------|-------||
-----------3-------|----------------|-----------1--------|-----------1--------|--1----||
--------3-----3----|--0-------------|--------2-----2-----|--------3-----3-----|--2----||
-----0-------------|--2-------------|-----3-----------3--|-----3-----------3--|--3----||
-------------------|--3-------------|--------------------|--------------------|-------||
--2----------------|----------------|--0-----------------|--0-----------------|--0----|| fine...

That was amazing! Favorited!

That was amazing! Favorited!