Ads

Ludibrium (Maple Story) Guitar Tab

Submitted: Jun 18, 2015 by Lemoncobbler

5
Average: 5 (2 votes)
Download | Listen
Game: Maple Story
Composer(s): Unknown
Style: Arrangement, Fingerstyle

This song is also called Fantastic Thinking

AutoScroll: Slow | Medium | Fast
   Ludibrium/Fantastic Thinking


Maplestory
Arranged By Lemoncobbler
The midi tempo is up to speed with the actual song but it can be a bit tricky
to play at its oringinal speed, I suggest playing it a bit slower. 


Track 1
     H.              Q    Q    Q       Q    Q    Q       Q    Q    Q     
E||---------------|-----------------|-----------------|-----------------|
B||---------------|-----------------|-----------------|-----------------|
G||---------------|-------2----2----|-------2----2----|-------2----2----|
D||---------------|-------0----0----|-------0----0----|-------0----0----|
A||--0------------|-----------------|--0--------------|-----------------|
D||---------------|--0--------------|-----------------|--0--------------|


  Q    Q    Q       Q    Q    Q       Q    E  E  Q       Q    E  E  Q     
-----------------|-----------------|------------------|------------------|
-----------------|-----------------|----------0--2----|--3-------2--3----|
-------2----2----|-----------------|--2----------2----|-------------2----|
-------0----0----|-------4----5----|-------0-----0----|-------0-----0----|
--0--------------|-------5----5----|--0---------------|------------------|
-----------------|--0--------------|------------------|--0---------------|


  Q    Q    Q       Q    Q    Q       Q    Q    Q       Q    Q    Q     
-----------------|-----------------|-----------------|-----------------|
--3---------0----|-----------------|-----------------|-----------------|
-------2----2----|--2--------------|-----------------|-----------------|
-------0----0----|-------0----0----|-------0----0----|-------2----4----|
--0--------------|-----------------|--0--------------|-----------------|
-----------------|--0--------------|-----------------|--0--------------|


  Q    Q    Q       Q    Q    Q       Q    E  E  Q       Q    E  E  Q     
-----------------|-----------------|------------------|------------------|
-----------------|-----------------|----------0--2----|--3-------2--3----|
------------0----|-----------------|--2----------2----|-------------2----|
-------4---------|-------4----5----|-------0-----0----|-------0-----0----|
--0--------------|-------5----5----|--0---------------|------------------|
-----------------|--0--------------|------------------|--0---------------|


  Q    Q    Q       Q    Q    Q       Q    Q    Q       Q    Q    Q     
-----------------|-----------------|-----------------|-----------------|
--3---------0----|-----------------|-----------------|-----------------|
-------2----2----|--2--------------|-----------------|------------0----|
-------0----0----|-------0----0----|-------0----0----|-------0---------|
--0--------------|-----------------|--0--------------|-----------------|
-----------------|--0--------------|-----------------|--0--------------|


  Q    Q    Q       Q    Q    Q       Q    E  E  Q       Q    Q    Q     
------------3----|-----------------|------------------|--0---------2----|
-------3---------|------------0----|--2-------2--3----|-----------------|
--2--------------|-------0----0----|-------2-----2----|-----------------|
-----------------|-------2---------|--2---------------|-------4----4----|
-----------------|-----------------|------------------|-----------------|
-----------------|--2--------------|------------------|--4--------------|


                    ^                                                    
  Q    Q    Q       Q    E  E  Q       Q    Q    Q       Q    Q    Q     
-----------------|-------------0----|-----------------|-----------------|
--3--------------|--2-------3-------|--0---------2----|-----------------|
-------2----2----|--0----2-----2----|-------2----2----|--2--------------|
-------4----4----|--2---------------|-------2----2----|-------0----0----|
--2--------------|--0---------------|-----------------|-----------------|
-----------------|------------------|--2--------------|--0--------------|


  Q    Q    Q       Q    Q    Q       Q    E  E  Q       Q    Q    Q     
-----------------|-----------------|------------------|------------2----|
-----------------|------------0----|--2-------2--3----|--5--------------|
-----------------|-------0----0----|-------2-----2----|-------2----2----|
-------2----2----|-------2---------|--2---------------|-------4----4----|
--0--------------|-----------------|------------------|-----------------|
-----------------|--2--------------|------------------|--4--------------|


                    ^                                                   
  Q    Q    Q       Q    Q    Q       Q    Q    Q       Q    Q    Q     
-----------------|------------0----|-----------------|-----------------|
--3--------------|--2----3---------|--0---------2----|--3--------------|
-------2----0----|--0----2----2----|-------2----2----|-------2----2----|
-------4---------|--2--------------|-------2----2----|-------0----0----|
--2--------------|--0--------------|-----------------|-----------------|
-----------------|-----------------|--2--------------|--0--------------|


                         ^                                              
  Q    Q    Q       Q    Q    Q       Q    Q    Q       Q    Q    Q     
-----------------|-------2----3----|--7---------5----|--5--------------|
-----------------|-------3---------|-----------------|-----------------|
-------2----2----|-------2---------|-----------------|------------0----|
-------2----2----|--0--------------|-------7----7----|-------4---------|
--0--------------|-----------------|--0--------------|-----------------|
-----------------|-----------------|-----------------|-----------------|


                         ^                                              
  Q    Q    Q       Q    Q    Q       Q    Q    Q       Q    Q    Q     
-----------------|-------2----3----|--7---------5----|--5--------------|
-----------------|-------3---------|-----------------|-----------------|
--4---------2----|-------2---------|-----------------|------------0----|
-------0---------|--0--------------|-------7----7----|-------4---------|
--0--------------|-----------------|--0--------------|-----------------|
-----------------|-----------------|-----------------|-----------------|


  Q    Q    Q       Q    Q    Q       Q    Q    Q       Q    Q    Q     
-----------------|--2--------------|--0---------2----|-----------------|
-----------------|--3--------------|--2--------------|--3--------------|
--4---------2----|-------2----2----|-------2----2----|-------4----4----|
-------0---------|-------4----4----|--0----4----4----|-------4----4----|
--0--------------|--2--------------|-----------------|--2--------------|
-----------------|-----------------|-----------------|-----------------|


  Q    Q    Q       Q    Q    Q       Q    Q    Q       Q    Q    Q     
-----------------|--0---------2----|--3---------2----|--0--------------|
-------2----3----|--2--------------|-----------------|--2--------------|
-------2----4----|-------4----4----|-------2----2----|-------2----2----|
-------4----4----|-------4----4----|-------4----4----|--4----4----4----|
--4--------------|--2--------------|--4--------------|-----------------|
-----------------|-----------------|-----------------|-----------------|


  Q    Q    Q       Q    Q    Q       Q    Q    Q       Q    Q    Q     
-----------------|--2--------------|--0---------2----|-----------------|
--3--------------|--3--------------|--2--------------|--3--------------|
--4--------------|-------2----2----|-------2----2----|-------4----4----|
-------4----4----|-------4----4----|-------4----4----|-------4----4----|
--4--------------|--2--------------|-----------------|--2--------------|
-----------------|-----------------|--0--------------|-----------------|


  Q    Q    Q       Q    Q    Q       Q    Q    Q       Q    Q    Q     
-----------------|--0---------2----|--3---------2----|--0--------------|
-------2----3----|--2--------------|-----------------|--2--------------|
-------2----4----|-------4----4----|-------2----2----|-------2----2----|
-------4----4----|-------4----4----|-------4----4----|-------4----4----|
--4--------------|--2--------------|--4--------------|-----------------|
-----------------|-----------------|-----------------|--4--------------|


                                        ^                                 
  Q    Q    Q       E  E  E  E  Q       Q    Q    Q       Q    Q    Q     
-----------------|--------------0----|--2----3----5----|-----------------|
--3--------------|--------2--3-------|--3--------------|--7--------------|
--4--------------|--2--4-------------|--0--------------|------------0----|
-------4----4----|-------------------|-----------------|-----------------|
--4--------------|-------------------|--0--------------|-------7---------|
-----------------|--0----------------|-----------------|--5--------------|


                                        ^                 ^               
  Q    Q    Q       E  E  E  E  Q       Q    Q    Q       Q    Q    Q     
--0--------------|-------------------|--0----2----3----|--0--------------|
--3--------------|--------0--2--3----|--3--------------|--0--------------|
--0---------0----|--0--2-------------|--0--------------|--0--------------|
-------2---------|-------------------|-----------------|--4---------4----|
-----------------|-------------------|-----------------|--5----5---------|
-----------------|--2----------------|--2--------------|--0--------------|


  ^                                     ^                                 
  Q    Q    Q       E  E  E  E  Q       Q    Q    Q       Q    Q    Q     
-----------------|--------------0----|--2----3----5----|-----------------|
--3--------------|--------2--3-------|--3--------------|--7--------------|
--0--------------|--2--4-------------|--0--------------|------------0----|
--4---------4----|-------------------|-----------------|-----------------|
--5----5---------|-------------------|--0--------------|-------7---------|
--0--------------|--0----------------|-----------------|--5--------------|


                                        ^                 ^               
  Q    Q    Q       E  E  E  E  Q       Q    Q    Q       Q    Q    Q     
--3--------------|-------------------|--0----2----3----|--7--------------|
--3--------------|--------0--2--3----|--3--------------|--0--------------|
--0---------0----|--0--2-------------|--0--------------|--0--------------|
-------2---------|-------------------|-----------------|--4---------4----|
-----------------|-------------------|-----------------|--5----5---------|
-----------------|--2----------------|--2--------------|--0--------------|


  ^                                                                     
  Q    Q    Q       Q    Q    Q       Q    Q    Q       Q    Q    Q     
--5--------------|--5--------------|--5---------3----|--2--------------|
--3--------------|-----------------|------------5----|--3--------------|
--0--------------|------------0----|-----------------|-----------------|
--4---------4----|-------2---------|-------2---------|------------4----|
--5----5---------|-----------------|-----------------|-------5---------|
--0--------------|--2--------------|--2--------------|--0--------------|


                                      ^                                
  Q    Q    Q       Q    Q    Q       H        Q       Q    Q    Q     
-----------------|--0----2----3----|----------------|-----------------|
-----------------|-----------------|--3--------2----|--3--------------|
-----------------|------------0----|--2-------------|--2--------------|
------------4----|-------4---------|--0-------------|--4---------4----|
-------5---------|--0--------------|----------------|-------5---------|
--0--------------|-----------------|----------------|--0--------------|


  Q    Q    Q       Q    Q    Q       Q    Q    Q       Q    Q    Q     
-----------------|--5--------------|------------3----|--2--------------|
-----------------|-----------------|-----------------|--0--------------|
--2--------------|------------0----|------------2----|-----------------|
--4---------4----|-------2---------|-------2---------|------------4----|
-------5---------|-----------------|-----------------|-------5---------|
--0--------------|--2--------------|--2--------------|--0--------------|


                                                       ^              
  Q    Q    Q       Q    Q    Q       H        Q       H.             
-----------------|--0----2----3----|----------------|---------------||
-----------------|-------2----5----|--3--------2----|--3------------||
--2--------------|--2--------------|--2-------------|--2------------||
-------4---------|-----------------|--2-------------|--4------------||
------------5----|-----------------|----------------|---------------||
--0--------------|--2--------------|--2-------------|--0------------||




Duration Legend
---------------
W - whole
H - half
Q - quarter
E - 8th
S - 16th
T - 32nd
X - 64th
. - note dotted
|-n-|  - n-tuplets


Tablature Legend
----------------
L - tied note
x - dead note
g - grace note
(n) - ghost note
> - accentuded note
NH - natural harmonic
AH - artificial harmonic
TH - tapped harmonic
SH - semi harmonic
PH - pitch harmonic
h - hammer on
p - pull off
b - bend
br - bendRelease
pb - preBend
pbr - preBendRelease
brb - bendReleaseBend
\n/ - tremolo bar dip
\n - tremolo bar dive
-/n - tremolo bar Release up
/n\ - tremolo bar inverted dip
/n - tremolo bar return
-\n - tremolo bar Release down
S - shift slide
s - legato slide
/ -  slide into from below or out of upwards
\ -  slide into from above or out of downwards
~ - vibrato
W - wide vibrato
tr - trill
TP - tremolo picking
T - tapping
S - slap
P - pop
< - fade in
^ - brush up
v - brush down
Login or Register to remove this ad.

2 comments on Ludibrium

I really like the soundtrack

5

I really like the soundtrack of Maple Story. For such a silly MMORPG, it's actually really good.

Absolutely! The music was

Absolutely! The music was half the experience for me~