Ads

Underground River (Made in Abyss) Guitar Tab

Submitted: Oct 25, 2017 by GomiNoUmi

5
Average: 5 (4 votes)
Download | Listen
Game: Made in Abyss
Composer(s): Kevin Penkin
Style: Arrangement, Fingerstyle

AutoScroll: Slow | Medium | Fast
Title: Underground River
Composer: Kevin Penkin
Anime: Made in Abyss
Song: https://www.youtube.com/watch?v=Of80BqURnN8
Arrangement by: GomiNoUmi
Made: 24.10.2017

Rhythm 4/4
Drop D
Capo on 5th fret


E|---------------------|---------------------|---------------------|---------------------|
B|---------------------|---------------------|---------------------|---------------------|
G|------2---------2----|------2---------2----|----------------2----|------2--------------|
D|---------------------|---------------------|---------------------|-0-------------------|
A|-1-------------------|-1---------1---------|-----------3---------|---------------------|
D|---------------------|---------------------|---------------------|---------------------|


E|---------------------|---------------------|---------------------|---------------------------------|
B|---------------------|---------------------|---------------------|-3-------1---------------3-------|
G|----------------2----|------2---------2----|-----------2---------|-----------------2---------------|
D|-----------2---------|-4---------5---------|------5--------------|---------------------------------|
A|---------------------|---------------------|---------------------|-1-----------1-------------------|
D|---------------------|---------------------|---------------------|---------------------------------|


E|---------------------------------|---------------------------------|---------------------------------|
B|-1-------------------------------|---------------------------------|---------------------------------|
G|---------2-------0-------2-------|---------2-----------------------|-0-------2-------0-------2-------|
D|---------------------3-----------|-------------------------0---3---|---------------------3-----------|
A|-----1-----------1---------------|-1-------------------------------|-1---------------3---------------|
D|---------------------------------|---------------------------------|---------------------------------|


E|---------------------------------|---------------------------------|---------------------------------|
B|---------------------------------|---------------------------------|---------------------------------|
G|---------2-----------------------|-0-------2-------0-------2-------|---------2---------------2-------|
D|-0-------------------0---0---3---|-0---------------2---3-----------|-4---------------5---------------|
A|---------------------------------|---------------------------------|---------------------------------|
D|---------------------------------|---------------------------------|---------------------------------|


E|---------------------------------|---------------------------------|---------------------------------|
B|---------------------------------|-3-------1---------------3-------|-1-------------------------------|
G|-----------------2-----------2---|-----------------2---------------|---------2-------0-------2-------|
D|---------5-----------------------|---------------------------------|---------------------3-----------|
A|---------------------------------|-1-----------1-------------------|-----1-----------3---------------|
D|---------------------------------|---------------------------------|---------------------------------|


E|---------------------------------|---------------------------------|---------------------------------|
B|---------------------------------|---------------------------------|---------3-------1-------3-------|
G|---------2-----------------------|-0-------2-------0---------------|---------------------3-----------|
D|-------------------------0---3---|---------------------3---3-------|---------------------------------|
A|---------------------------------|---------------------------------|-----------------1---------------|
D|-0-------------------------------|-1---------------1---------------|-3-------------------------------|


E|---------------------------------|-------------------------1-------|---------------------------------|
B|-1-------------------------------|-----------------3---------------|---------3-------1---------------|
G|-----3---0---------------0-------|---------------------------------|-3-------------------3---0-------|
D|-----------------3---------------|-0-------------------------------|-1---------------0---------------|
A|---------------------------------|---------------------------------|---------------------------------|
D|-3---------------1---------------|-0-------------------------------|---------------------------------|


E|---------------------------------|---------------------------------|---------------------------------|
B|-----------------1---------------|---------------------------------|---------------------------------|
G|-----0---3---------------3---0---|---------------------------------|---------------------------------|
D|-3-------------------------------|-3-------0---------------0-------|---------------------------------|
A|-3---------------1---------------|-----------------3---1-----------|---------------------------------|
D|---------------------------------|-3---------------0---------------|---------------------------------|


E|---------------------------------|---------------------------------|-----------------------------0---|
B|---------------------------------|---------------------------------|---------------------1---3-------|
G|-----------------0-------2-------|-0-------------------------------|-----------------2---------------|
D|---------0---3-------------------|-----3---------------------------|-------------3-------------------|
A|---------------------------------|-1---------------1---------------|-1---------------3---------------|
D|---------------------------------|---------------------------------|---------------------------------|


E|---------------------------------|---------------------------------|---------------------------------|
B|-------------------------3---1---|---------------------6-----------|-------------------------3-------|
G|---------------------------------|-----------------2---------------|---------------------------------|
D|-0---------------0---------------|-2---------------3---------------|-5---------------5---------------|
A|---------------------------------|---------------------------------|---------------------------------|
D|---------------------------------|---------------------------------|---------------------------------|


E|---------------------------------|---------------------------------|---------------------------------|
B|-1-------------------------------|-----------------3-------1-------|---------3-------1---------------|
G|-----2---0-------0-------0---2---|-----------------0---------------|-2---------------0-------2-------|
D|-------------3-------3-----------|-3---------------2---------------|-0---------------2---------------|
A|-1---------------3---------------|-1---------------3---------------|-0---------------3---------------|
D|---------------------------------|---------------------------------|---------------------------------|


E|--------|--------|--------|--------|---------------------------------|---------------------------------|
B|--------|--------|--------|--------|---------------------------------|---------------------------------|
G|--------|--------|--------|--------|-3-------2-------3-------2-------|-3-------2-------3-------2-------|
D|-3------|-(3)----|--------|--------|-----3-------3-------3-------3---|-----3-------3-------3-------3---|
A|-3------|-(3)----|-3------|-(3)----|-1---1---1---1---1---1---1---1---|-1---1---1---1---1---1---1---1---|
D|-3------|-(3)----|-3------|-(3)----|---------------------------------|---------------------------------|


E|---------------------------------|---------------------------------|---------------------------------|
B|---------------------------------|---------------------------------|-5-------5-------5-------5-------|
G|-5-------0-------5-------0-------|-5-------0-------5-------0-------|---------------------------------|
D|-----3-------3-------3-------3---|-----3-------3-------3-------3---|-----3-------3-------3-------3---|
A|-3---3---3---3---3---3---3---3---|-3---3---3---3---3---3---3---3---|-1---1---1---1---1---1---1---1---|
D|---------------------------------|---------------------------------|---------------------------------|


E|-----------------3---------------|-3-------0-------3-------0-------|-3-------0-------3-------0-------|
B|-5-------5---------------5-------|-----1-------1-------1-------1---|-----1-------1-------1-------1---|
G|-----5-------5-------5-------5---|---------------------------------|---------------------------------|
D|---------------------------------|---------------------------------|---------------------------------|
A|-3---3---3---3---3---3---3---3---|-0---------------2---------------|-3-------------------------------|
D|---------------------------------|-0---------------2---------------|-3-------------------------------|


E|-3-------0-------3-------0-------|-3-------0-------3-------0-------|-3------|
B|-----1-------1-------1-------1---|-----1-------1-------1-------1---|-1------|
G|---------------------------------|---------------------------------|--------|
D|---------------------------------|---------------------------------|-3------|
A|-2-------------------------------|-3-------------------------------|-3------|
D|---------------------------------|---------------------------------|-3------|



Login or Register to remove this ad.