Login or Register to remove this ad.

Tabi no Hidarite, Saihate no Migite (Made in Abyss) Guitar Tab

Submitted: Dec 04, 2017 by JordanVS

5
Average: 5 (1 vote)
Download | Listen
Game: Made in Abyss
Composer(s): Kevin Penkin
Style: Arrangement, Fingerstyle, Natural harmonics

This song is also called Ending Theme

AutoScroll: Slow | Medium | Fast
Tabi no Hidarite, Saihate no Migite                                  
Ending Theme
Made in Abyss 
Yukari Hashimoto, Takashi Matsumoto & EFFY 
Jordan VS

Tempo : 100 ~ 4/4

     E  E  Q    E  E  E  E     S S E  Q    E  E  E  E     S S E  S S E  S S E  S S E   
E||-----0--0-------2--5--2--|------4-------------3--8--|------------------------------|
B||--0----------3-----------|----5----5-------5--------|----4-5--5-4-5---------5-4-5--|
G||--1----------2-----------|--6-----------5-----------|--4-------------6-4-6---------|
D||--2----------0-----------|--------------------------|------------------------------|
A||--------2----------0-----|--4-----------3-----------|------------------------------|
E||-------------------------|---------4----------3-----|--4------4------6------6------|


  S S E  S S E  E  E  Q       E  E  E  E  E  S S Q       E  E  E  E  E  E  E  E   
--4---4--6---6--7-----7----|-----0--0--------0-0-L----|-----------2--0-----2-----|
--5-7----7-9-------7--7----|--0--------0--------------|--5--4--5-----1-----0-----|
--4---L--6---L--------8----|--1-----------3-----------|--2--------------0-----1--|
----------------------9----|--2-----------4-----------|--------2-----------------|
--0----------------9-------|--------2------------4----|--------------3-----2-----|
---------6------7----------|--------------------------|--------------------------|


                                                            ^          ^       
  E  E  E  E  E  S S Q       E  E  E  E  Q    Q       E  E  E  E  E  S S Q     
--4--0--0-----------------|-----------2------------|-----0--0--------0-0-L----|
--0--------0-----0-2-L----|--2--4--5-----5----4----|--0-----0--0-------2-L----|
--------------3-----------|--2-----------5----4----|--1-----1-----3----3-L----|
--2-----------4-----------|--------2---------------|--2-----2-----4----4-L----|
--------2------------4----|--------------3----2----|--------2------------4----|
--------------------------|------------------------|--------------------------|


  E  E  E  E  Q    Q       E  S S E  E  E  S S Q       E  E  E  E  E  E  E  E   
--0-----0--2--0---------|--0----0-L--0--0----0-L----|-----------2--------------|
-----4-------------4----|--0--4---------0--4--------|--2--5--5--2--4-----------|
--2-----------2---------|---------------------------|--2--2--2-----5-----------|
--------2----------4----|---------2------------2----|-----------------6--------|
--------------3----2----|---------------------------|--0-----0-----------6--3--|
------------------------|--4------------3-----------|--------------4-----------|


  S S E  E  E  S S E  Q       S S E  E  E  S S E  E  E     E  S S E  E  E  S S Q     
---------------------------|------------2------------0--|--4--0-0-L--0--3--0-0-L----|
--5-4-5-----5--5-4-5-------|--5-4-5--------5-4-2--------|-------0-L----------0-L----|
---------------------------|----------------------------|---------------------------|
---------6------------6----|----------------------------|---------2------------2----|
--4------------4-----------|---------4------------4-----|---------------------------|
---------------------------|--2------------2------------|--4------------3-----------|


                   ^                              NH                              NH     
  E  E  E  E  Q    Q       S S E  S S E  S S E    E  E     S S E  S S E  S S E    E  E   
--------0--2------------|------0-------------0----------|------0----0-2--4-2-4--<>5--4--|
--2--4--------4----4----|--2-4----0-2-4--2-4----<>5-----|--2-4----4---------------------|
--------2-----4----2----|--2------1------2-----------4--|--2------4---------------------|
--4----------------4----|-------------------------------|----------------2--------------|
-------------------2----|-------------------------------|-------------------------------|
------------------------|-------------------------------|-------------------------------|


  E  E  E  E  E  E  E  E     Q    E  S S E  E  E  E     Q    E  E  E  E  Q     
--5--4--5--4--5--4--2--0--|--0-----------0-----1-----|--2----------------7----|
--------------------------|--0-------2-4-------------|--4-------1--4--7--7----|
--------2-----------2-----|-----------------2-----3--|-------0-----------8----|
--------------0-----------|-------4------------------|----------2--1--4-------|
--------------------------|--2-----------0-----1-----|--2----3----------------|
--2-----------------------|--------------------------|-------------------7----|


  ^                                                                          
  E  E  E  E  Q    Q       Q    E  E  Q    Q       S S E  Q    S S E  E  E   
--0-----0--2--4----5----|--7-------0-------2----|------------------------2--|
--0--0--------5----5----|--7----------4----4----|--5-4-5-------5-4-5--------|
--1----------------6----|--8----------5---------|--------------2---L--------|
------------------------|------------------4----|--6---L--6-----------------|
--------2-----0----7----|-------9-----3---------|--4------------------4-----|
--0---------------------|--7--------------------|--------------2------------|


  E  E  E  E  Q    Q       E  E  E  E  Q    Q       Q    E  E  Q    Q     
--4--5--4--2--0----2----|--0-----0--2--4----5----|--7-------0-------2----|
--------------1----4----|-----0--------5----5----|--7----------4----4----|
--2--2--2--2-------4----|--1----------------6----|--8----------5---------|
--------2---------------|------------------------|------------------4----|
--0-----------3----2----|--------2-----0----7----|-------9-----3---------|
------------------------|--0---------------------|--7--------------------|


  Q    E  S S E  E  E  E     Q    E   S S S S E  Q       S S S S E  E  Q    E  E   
--------------------------|---------------------------|----0-0---0--2--4----5--5--|
--5-------5-5-7--5--4--5--|--9-------10-9-L-7-5-------|--2-----2------------------|
--6-----------------------|--9----------6-L-----------|--2-------2--2--2----2--2--|
-------6------------4-----|--9----------------4--L----|---------------------------|
--4-----------3-----------|-------6-------------------|--0-------------0----------|
--------------------------|--7----------6-L-----------|---------------------------|


  Q.     E  E  E  E  E     Q    Q    E  E  Q       E  E  E  E  E  E  E  E     H        H          
--3------3--2--------2--|--0--------------------|--------------------2-----|--0-----------------||
---------------3--3-----|--0---------3--0--3----|--------2-----1--------3--|--------------------||
--5------5--2--------2--|--1--------------------|--2--------2-----0--2-----|--1-----------------||
---------------4--4-----|--2--------------------|--------2-----2-----------|--2-----------------||
--3---------5-----------|-------2---------------|--4--4--------3-----------|--------------------||
------------------------|------------0----------|--------------------------|--------------------||




Duration Legend
---------------
W - whole
H - half
Q - quarter
E - 8th
S - 16th
T - 32nd
X - 64th
. - note dotted
|-n-|  - n-tuplets


Tablature Legend
----------------
L - tied note
x - dead note
g - grace note
(n) - ghost note
> - accentuded note
NH - natural harmonic
AH - artificial harmonic
TH - tapped harmonic
SH - semi harmonic
PH - pitch harmonic
h - hammer on
p - pull off
b - bend
^ - brush up
v - brush down
Login or Register to remove this ad.