Login or Register to remove this ad.

Made in Abyss (Made in Abyss) Guitar Tab

Submitted: Oct 22, 2017 by scarecrowlol

5
Average: 5 (5 votes)
Download | Listen
Game: Made in Abyss
Composer(s): Kevin Penkin
Style: Arrangement, Fingerstyle, Pinch harmonics

AutoScroll: Slow | Medium | Fast
Title: Made In Abyss
SubTitle: Made In Abyss
Artist: Kevin Penkin
Tabber: Mitch Jackson
Tempo = 87
T/S = 4/4

                                                                                   P.H     P.H
     E  E  E  E  H                E  E  E  E  Q.       E       E  E  E  E  Q.       E       E  E  E  E  H
E |--------------0-------------|--------------0--------0----|--0-----------0-------<0>---|-<0>----------0-------------|
B |-----------0----------------|-----------0----------------|-----------0----------------|-----------0----------------|
G |--------2-------------------|--------2-------------------|--------2-------------------|--------2-------------------|
D |----------------------------|----------------------------|----------------------------|----------------------------|
A |-----3----------------------|-----3----------------------|-----3----------------------|-----3----------------------|
D |--3-------------------------|--3-------------------------|--3-------------------------|--3-------------------------|

                                                          
     E  E  E  E  E  E  E  E       E  E  E  E  H                E  E  E  E  E  E  E  E       E  E  E  E  Q     S S S S
  |--0-----0-----0-------------|--3-----3-------------------|----------------------------|--0-----0---------------------|
  |-----------3-----3--1--3----|-----------3--L-------------|--1--3--3--1--3-----0-------|-----------0----------0-1-3---|
  |--------2-------------------|--------0-------------------|-----------2-----5--0--5----|--------0----(0)----2---------|
  |----------------------------|----------------------------|--------3--------0----------|-----2------------------------|
  |-----3----------------------|-----3----------------------|-----0----------------------|--3---------------------------|
  |--3-------------------------|--2-------------------------|--0-----------5-------------|------------------------------|

                             
     E  E  E  E  E  E  E  E       E  E  E  E  E  E  E  E       E  E  E  Q     E  E  E       E  E  E  E  H
  |--0-----0-----0-------------|-----------0----------------|----------------------------|----------------------------|
  |-----------3--------0--1----|--3--------------------3----|-----------0----------------|--0-------------------------|
  |--------2--------2----------|--------5-----------5-------|--------0--------5-----5----|--------2--2--0-------------|
  |-----2----------------------|--------3--------0--4-------|-----0--------------7-------|--------3-------------------|
  |--0-------------------------|-----3----------------------|----------------------------|-----3----------------------|
  |----------------------------|--3-----------4-------------|--5-------------------------|--3-------------------------|

     ^                            ^                            ^                   P.H     P.H        
     E  E  E  E  H                E  E  E  E  Q.       E       E  E  E  E  Q.       E       E  E  E  E  H 
  |--0-----------0-------------|--0-----------0--------0----|--0-----------0-------<0>---|-<0>----------0-------------|
  |--0--------0----------------|--0--------0----------------|--0--------0----------------|-----------0----------------|
  |--------2-------------------|--------2-------------------|--------2-------------------|--------2-------------------|
  |----------------------------|----------------------------|----------------------------|----------------------------|
  |-----3----------------------|-----3----------------------|-----3----------------------|-----3----------------------|
  |--3-------------------------|--3-------------------------|--3-------------------------|--3-------------------------|

  
     E  E  E  E  E  E  E  E       E  E  E  E  H                E  E  E  E  E  E  E  E       E  E  E  E  Q     S S S S
  |--0-----0-----0-------------|--3-----3-------------------|----------------------------|--0-----0-----0---------------|
  |-----------3-----3--1--3----|-----------3--L-------------|--1--3--3--1--3-----0-------|-----------0----------0-1-3---|
  |--------2-------------------|--------0-------------------|-----------2-----5--0--5----|--------0-----------2---------|
  |----------------------------|----------------------------|--------3--------0----------|-----2------------------------|
  |-----3----------------------|-----3----------------------|-----0----------------------|--3-----------------2---------|
  |--3-------------------------|--2-------------------------|--0-----------5-------------|------------------------------|


     E  E  E  E  E  E  E  E       E  E  E  E  E  E  E  E       E  E  E  Q     E  E  E       E  E  E  E  Q     Q
  |--0-----0-----0-------------|-----------0----------------|----------------------------|----------------------------|
  |-----------3--------0--1----|--3--------------------3----|-----------0----------------|--1-----0-------------------|
  |--------2--------2----------|--------5-----------5-------|--------0--------5-----5----|-----------0--2-----0-------|
  |-----2-----------------2----|--------3--------0--4-------|-----0--------------7-------|--------2-------------------|
  |--0-------------------------|-----3----------------------|----------------------------|-----2----------------------|
  |----------------------------|--3-----------4-------------|--5-------------------------|--2-------------------------|


     E  E  E  E  E  E  E  E       E  E  E  E  E  E  E  E       E  E  E  E  E  E  E  E       E  E  E  S S E  E  E  S S
  |--------0-------------------|----------------------------|----------------------------|------------------------------|
  |--------------3-----1-------|--0-------------------------|--------3-----1-----0-------|-----------0------------0h1---|
  |--------2-------------------|--------2-----0-------------|--------2-------------------|--2-----0----5-------2--------|
  |--2-------------------------|--------------------3-------|----------------------------|-----0------------2-----------|
  |-----3-----3-----3-----3----|-----3-----3-----3-----3----|-----3-----3-----3-----3----|---------------0--------------|
  |--3-------------------------|--3-------------------------|--3-------------------------|--5---------------------------|


     E  E  E  E  E  E  E  E       E  E  E  E  E  E  E  E       E  E  E  E  E  E  E  E       E  E  E  E  E  E  E  E 
  |--0-------------------------|----------------------------|--0-------------------------|----------------------------|
  |--------3-----1-----0-------|--------------0-------------|--------3-----1-----0-------|--------------1-----3-------|
  |--------0--------------0----|--2-----0--0-----------0----|--------2-------------------|--2-----0-------------------|
  |-----2-----2--------2-------|--------2-----3-----2-------|----------------------------|--------------3-----2-------|
  |--3--------------3----------|-----2-----------2----------|-----3-----3-----3-----3----|-----3-----3-----3-----3----|
  |----------------------------|--2-------------------------|--3-------------------------|--3-------------------------|

                                                                                   P.H     P.H
     E  E  E  E  H                E  E  E  E  Q.       E       E  E  E  E  Q.       E       E  E  E  E  H     
  |--------------0-------------|--------------0--------0----|--0-----------0-------<0>---|-<0>----------0-------------|
  |-----------0----------------|-----------0----------------|-----------0----------------|-----------0----------------|
  |--------2-------------------|--------2-------------------|--------2-------------------|--------2-------------------|
  |----------------------------|----------------------------|----------------------------|----------------------------|
  |-----3----------------------|-----3----------------------|-----3----------------------|-----3----------------------|
  |--3-------------------------|--3-------------------------|--3-------------------------|--3-------------------------|


     S E.  S E.  S Q.       S      S E.  S H           S E       S E.  S E.  S Q     S E       S E.  S H           E.
  |--12----12----12-------------|--10----10--------------12---|--12--------------------12---|--12------------------L-----|
  |----10----10----10-------L---|----10----10----------L------|-(13)--(13)--(13)------------|-(12)--(12)-----------L-----|
  |-----------------------------|-----------------------------|---(12)--(12)--(12)---L------|---(12)--(12)---------L-----|
  |-(9)---------(9)-------------|-(9)-------------------------|-----------------------------|----------------------------|
  |-----------------------------|-----------------------------|-----------------------------|----------------------------|
  |-----------------------------|-----------------------------|-----------------------------|----------------------------|


     W
  |--L--------------------------||
  |--L--------------------------||
  |--L--------------------------||
  |-----------------------------||
  |-----------------------------||
  |-----------------------------||

Login or Register to remove this ad.

3 comments on Made in Abyss

Great track and a fantastic

Great track and a fantastic tab. The Soundtrack of this show has been really precious, thank you for making this.

Thanks man! Hey haven't seen

Thanks man! Hey haven't seen you round here in a while ✌

Haha yeah, life has been busy

Haha yeah, life has been busy lately :) But I'm still lurking around this site every now and then, checking out new tabs if I see some !