Ads

Days in the Sun (Made in Abyss) Guitar Tab

Submitted: Oct 28, 2017 by GomiNoUmi

5
Average: 5 (3 votes)
Download | Listen
Game: Made in Abyss
Composer(s): Kevin Penkin
Style: Arrangement, Fingerstyle

AutoScroll: Slow | Medium | Fast
Title: Days in the Sun
Composer: Kevin Penkin
Anime: Made in Abyss
Song: https://www.youtube.com/watch?v=BY6EGIjueX8
Arrangement by: GomiNoUmi
Made: 26.10.2017

Rhythm 4/4
Drop D
Capo on 5th fret

E|------------------------|---------------------------------|---------------------------------|
B|------------------------|-3---3-----------3---3-----------|-----3---------------3-----------|
G|--------------------2---|--------2----0----------2--------|--------2---------------2--------|
D|------------------------|-0---------------0---------------|-0-----------4---5---------------|
A|------------------------|---------------------------------|---------------------------------|
D|------------------------|---------------------------------|---------------------------------|


E|---------------------------------|---------------------------------|---------------------------------|
B|-3---3-----------3---3-----------|-----3---------------3-----------|-3---3-----------3---3-----------|
G|--------2---------------2--------|--------2------------------------|--------2----0----------2--------|
D|-0-----------0---2---------------|-0-----------0---0------0--------|-0---------------0---------------|
A|---------------------------------|---------------------------------|---------------------------------|
D|---------------------------------|---------------------------------|---------------------------------|


E|----0--3--3---------------3--2---0---|-5--------------7--5-----------3--2--|-------------0---------------------|
B|-3--------3------------3-------------|-----3-----------------3-------------|-----3----------3------3-----------|
G|--------------------------2----------|--------2-----------------2----------|--------2----------------------2---|
D|-0-------------4---5-----------------|-0-----------0-----2-----------------|-0-----------0-----0------0--------|
A|-------------------------------------|-------------------------------------|-----------------------------------|
D|-------------------------------------|-------------------------------------|-----------------------------------|


E|-------------------0---0----------0--|-2--5--5--5--------3------10-9-----10-5--|
B|-3---3----------3--0-----------3-----|-3--------3--------0---------------------|
G|-2------2----2------------2----------|-2--------2--------0---------------------|
D|-0-----------------2-----------------|-4-------------4---0---------------------|
A|-------------------------------------|-----------------------------------------|
D|-0-----------------2-----------------|-----------------------------------------|


E|---------------5--7------2---0-------|---------------------------------|-----------------------------|
B|---------------------------------3---|---------------------------------|-3--------3--5-------3---5---|
G|---------------------2-------4-------|----4-----7----------------2--4--|-2---------------------------|
D|-2-------4-----------0-------2-------|-7-------------------------------|-0--------------2------------|
A|-0-------2---------------------------|-5-----------0-------------------|----------------2------------|
D|-------------------------------------|-5-----------0-------------------|-0--------------2------------|


E|-2---5--2----------------------2--5--|-7---2--2--------0--0------------------------|
B|-3-----------------0-----------------|---------------------------------------------|
G|-2-----------------0-----------------|---------------------------7--7-----------4--|
D|-4-----------------0-----------------|-2---------4---------------------------------|
A|-------------------------------------|-0---------2-----------5---------5-----------|
D|-------------------------------------|-----------------------5---------4-----------|


E|---------------------3--------0--------|----------------0----------5-----9--10-|
B|---------3---5---7------7--------------|-------------7-------------------------|
G|-2---4------------------------------7--|---------------------------------------|
D|---------------------------------------|---------------------------------------|
A|-2-------0-------5---------5-----------|-5-----------5--7----------------------|
D|-2-------0-------5---------4-----------|-5-----------5--7----------------------|


E|-------------12-10----------------10-------|-7-------5-------2---5--2-----0------|
B|----------------------10----10-------10----|---------------------------------3---|
G|-------------------------------------------|-------------------------------------|
D|-------------------------------------------|-------------------------------------|
A|-9-----------------0--------0--------0-----|-5-------5-------2---------0---------|
D|-9-----------------0--------0--------0-----|-5-------4-------2---------0---------|


E|-------------------------------------------|---------------------------|--------|
B|-------3---3---5--3-----------3-----5--3---|-------5-------------------|-(5)----|
G|-2--4-------------------2--4---------------|-----4---------------------|-(4)----|
D|-2---------4-------------------------------|---5-----------------------|-(5)----|
A|-0---------2---------0-----------2---------|-3-------------------------|-(3)----|
D|---------------------0-----------2---------|---------------------------|--------|


E|-------------------------|--------|-------------|--------|-------------|--------|
B|-------------------------|--------|-5-----5-----|--5-----|-5-----5-----|--5-----|
G|-4--4-----4--4-----4--4--|-(4)----|-4-----4-----|--4-----|-4-----4-----|--4-----|
D|-5--5-----5--5-----5--5--|-(5)----|-5-----5-----|-(5)----|-5-----5-----|-(5)----|
A|-3--3-----3--3-----3--3--|-(3)----|-3----(3)----|-(3)----|-3----(3)----|-(3)----|
D|-------------------------|--------|-------------|--------|-------------|--------|


E|--------|-------------------------------------------|---------------0--------2--3--2-----0------|
B|-(5)----|-------3---3---5--3-----------3-----5--3---|-----------3------3--------------------3---|
G|-(4)----|-2--4-------------------2--4---------------|----4--7-----------------------------------|
D|--------|-2---------4-------------------------------|-7---------2---------4---------------------|
A|--------|-0---------2---------0-----------2---------|-5---------0---------2-----------0---------|
D|--------|---------------------0-----------2---------|-5-------------------------------0---------|


E|---------------0--------------------0------|------------------------------------|
B|-----------2------3-----------3--------3---|-1----------------1--3--5-----------|
G|----4--7----------------2--4---------------|-0----------0--2--------------------|
D|-7---------2---------4---------------------|-2-------2--------------------------|
A|-5---------0---------2-----------0---------|-3----3-----------------------------|
D|-5-------------------------------0---------|------------------------------------|


E|-----------------------|--------|
B|-----------------------|--------|
G|-5---4-----------------|--------|
D|---------5-------------|--------|
A|-------------3---------|-(3)----|
D|-----------------------|--------|



Login or Register to remove this ad.