Haha to Ko Ranka no Aimo (Macross Frontier) Ukulele Tab

Submitted: Jun 12, 2015 by CandyCane52

3
Average: 3 (3 votes)
Download | Listen
Game: Macross Frontier
Composer(s): Yoko Kanno
Style: Transcription

AutoScroll: Slow | Medium | Fast
Aimo
Macross Frontier (Anime)
Yoko Kanno
CandyCane52
12/06/2015

 :00						:13
G----------------------------------------------------0--------0-----
C-0------3p2-0----0------0------3p2-0----0------3--0---3-2--0---3-2-
E----3-1--------3-1---------3-1--------3-1------3--------1--------1-
A-----------------1--3-0-----------------1--3-0---------------------
 :17
G-----------------------------------------------------0------0-----------3-----------
C-0----2-3p2-0----0------0----2-3p2-0---0------3------3------3--3--------3----0------
E----3-1--------3-1---------3-1-------3-1------3-----------1------1--3p1------1--3p1-
A-----------------1--3-0----------------1--3-0----5-0-----------1-0---------1-0------
 :45
G-0------------------------------------------------------------
C-3--3-2----0-0-3-2----0--0--0--------0----------3-3-----3-----
E------1----------1----------1--------4--------------3-1---1-3-
A----------------------3--3--3-6-5-3--3--3p1h3p1---------------

G-----------------------------------------
C-0--0--0--------0----------3-3-----3-----
E-------1--------4--------------3-1---1-3-
A-3--3--3-6-5-3--3--3p1h3p1---------------
 1:21
G----------------------------------------------------0-----------------------------
C-0------3p2-0----0------0-----3p2-0---0------3------3-----3--3--------3--3--------
E----3-1--------3-1--------3-1-------3-1------3---------1--3----1--3p1-3----1--3p1-
A-----------------1--3-0---------------1--3-0----5-0----------1-0---------1-0------
 1:49
G-0-----------0----------------------------
C-3--3-2----0---3-2--0-0-3-2--0-0-3----3p2-
E------1----------1--------1----------1----
A------------------------------------1-----
Login or Register to remove this ad.

1 comment on Haha to Ko Ranka no Aimo

Upside-down

3

Really beautiful! However, since this is written upside-down from how I usually read tabs, I switched it around for myself.

:00						:13
A-----------------1--3-0-----------------1--3-0---------------------
E----3-1--------3-1---------3-1--------3-1------3--------1--------1-
C-0------3p2-0----0------0------3p2-0----0------3--0---3-2--0---3-2-
G----------------------------------------------------0--------0-----
 :17
A-----------------1--3-0----------------1--3-0----5-0-----------1-0---------1-0------
E----3-1--------3-1---------3-1-------3-1------3-----------1------1--3p1------1--3p1-
C-0----2-3p2-0----0------0----2-3p2-0---0------3------3------3--3--------3----0------
G-----------------------------------------------------0------0-----------3-----------
 :45
A----------------------3--3--3-6-5-3--3--3p1h3p1---------------
E------1----------1----------1--------4--------------3-1---1-3-
C-3--3-2----0-0-3-2----0--0--0--------0----------3-3-----3-----
G-0------------------------------------------------------------

A-3--3--3-6-5-3--3--3p1h3p1---------------
E-------1--------4--------------3-1---1-3-
C-0--0--0--------0----------3-3-----3-----
G-----------------------------------------
 1:21
A-----------------1--3-0---------------1--3-0----5-0----------1-0---------1-0------
E----3-1--------3-1--------3-1-------3-1------3---------1--3----1--3p1-3----1--3p1-
C-0------3p2-0----0------0-----3p2-0---0------3------3-----3--3--------3--3--------
G----------------------------------------------------0-----------------------------

 1:49
A------------------------------------1-----
E------1----------1--------1----------1----
C-3--3-2----0---3-2--0-0-3-2--0-0-3----3p2-
G-0-----------0----------------------------