Ads

Karada no Uta ~Sasame~ (M3: Sono Kuroki Hagane) Guitar Tab

Submitted: Jan 01, 2018 by scarecrowlol

5
Average: 5 (2 votes)
Download | Listen
Game: M3: Sono Kuroki Hagane
Composer(s): Hajime Sakita
Style: Arrangement, Fingerstyle

This song is also called Mukuro no Uta ~Sasame~

AutoScroll: Slow | Medium | Fast
Title: Karada no Uta ~Sasame~
SubTitle: M3 ~Sono Kuroki Hagane~
Artist: Hajime Sakita
Tabber: Mitch Jackson
Tempo = 104
T/S = 4/4



   ♪♫•*¨*•.¸¸ CAPO 5 ¸¸.•*¨*•♫♪



     Q     E  E  Q     E  E       E     E  E  Q     E  E       Q     E  E  Q     Q          Q     E  E  Q     E  E  
E |--5-----5--5----------------|--5-----5--5----------------|-------(1)------------------|----------------------------|
B |--6-----6--6-----------3----|--6-----6--6-----------3----|----------(3)-3-----3-------|--3-----1--Ls-3-------(3)---|
G |--------------2-----2-------|--------------2-----2-------|--2-----2-------------------|--2----------------(2)------|
D |--0----------(0)------------|--0----------(0)------------|--0----------(0)------------|--0----------(0)------------|
A |----------------------------|----------------------------|----------------------------|----------------------------|
E |----------------------------|----------------------------|----------------------------|----------------------------|


     Q     E  E  E  E  E  E       Q     E  E  S E.  E  E       E  E  E  E  E  E  E  E       E  E  E  E  E  E  E  E 
  |--------0--0--0-------------|-------(1)------------------|--0--0-----0-----0----------|--0--0-----0-----0----------|
  |--------------1-----3--1----|--3--------3--1s3-----(3)---|--------------3--------1----|--------------3-----1--1----|
  |-----------2----------------|-------------------(2)------|-----------2--------2-------|-----------2----------------|
  |--------2-------(2)---------|--0----------(0)------------|--------2--------2----------|--------2--------2----------|
  |--0-------------------------|----------------------------|--0-------------------------|--0-------------------------|
  |----------------------------|----------------------------|----------------------------|----------------------------|


     Q     E  E  Q     Q          Q     E  E  Q     E  E       Q     E  E  E  E  S S E       Q     E  E  E  E  E  E  
  |-------(1)------------------|-------(1)---------(5)(5)---|--------0--0--0--------------|--------------5-----5--5----|
  |----------(3)-3-----3-------|--------3--3--1-----3-------|--------------1-----3-Ls1----|--3--------3-(3)---(3)-3----|
  |--------2--2-------(2)------|-------------(2)------------|-----------2-----------------|--------2-------------------|
  |--0----------(0)------------|--0----------(0)------------|--------2--------2-----------|--0-------------(0)---------|
  |----------------------------|----------------------------|--0--------------------------|----------------------------|
  |----------------------------|----------------------------|-----------------------------|----------------------------|


     Q     E  E  E  E  E  E       Q     E  E  E  E  Q          Q     E  E  Q     Q          Q.       E  Q     Q
  |-----------0--0-----0-------|--------0--0----------------|----------------------------|----------------------------|
  |--------------1-----1--1----|--------------3-----1-------|----------------------------|--------------3-----3-------|
  |-----------2----------------|-----------2----------------|--------2--2--2-----0-------|--2--------2----------------|
  |--------2--------2----------|--------2--------2----------|--------0-------------------|--L-------------------------|
  |--0-------------------------|--0-------------------------|----------------------------|----------------------------|
  |----------------------------|----------------------------|--3-------------------------|--L-------------------------|


     Q     E  E  E  E  E  E       Q     E  E  E  E  S S E       Q     E  E  E  E  E  E       E  E  E  E  E  E  E  E
  |-------------------(5)(5)---|--------0--3--0--------------|--------------5-----5--5----|--3--3--3-----3--3--1-------|
  |--------3--3--1-----3-------|--------------1-----3-Ls1----|--3--------3-(3)---(3)-3----|-----------------------3----|
  |--------2--------2----------|-----------2-----------------|--------2-------------------|--------------0----(0)(0)---|
  |--0-------------------------|--------2--------2-----------|--0-------------(0)---------|--------0--0--0----(0)(0)---|
  |----------------------------|--0--------------------------|----------------------------|----------------------------|
  |----------------------------|-----------------------------|----------------------------|--3-------------------------|


     E  E  E  E  E  E  E  E       E  E  E  E  E  E  E  E       Q     E  E  S Q     S E       Q     E  E  E  E  E  E 
  |--3--3--3--3--1--3----------|--3--3--3--3--3--3--1-------|-----------------------------|--------------5-----5--5----|
  |----------------------------|-----------------------3----|--3-----------3S5-----L-1----|--3--------3-(6)---(6)-6----|
  |--------------0----(0)(0)---|--------------0----(0)(0)---|--5-----5--5-----------------|--------2-------------------|
  |--------0--0--0----(0)(0)---|--------0--0--0----(0)(0)---|--2-----2--2-----------------|--0-------------(0)---------|
  |----------------------------|----------------------------|--0----------(0)-------------|----------------------------|
  |--3-------------------------|--3-------------------------|-----------------------------|----------------------------|


     Q     E  E  E  E  E  E       Q     E  E  E  E  E  E       E  E  E  E  E  E  E  E       E  E  E  E  E  E  E  E
  |--------------5-----5--5----|-------------------(5)------|--------------------5--5----|--------0--0--0-------------|
  |-----------3-(3)---(3)-3----|--------------3-----3--3----|--3-----1--Ls-3-----3--3----|-----------1--------3--1----|
  |--------2-------------------|--2-----2--2----(2)---------|-----2-----------2----------|--------2-------------------|
  |--0-------------(0)---------|--0----------(0)------------|--0----------(0)------------|-----2-----------2----------|
  |----------------------------|----------------------------|----------------------------|--0-------------------------|
  |----------------------------|----------------------------|----------------------------|----------------------------|


     Q     E  E  S S E  E  E       E  E  E  E  E  E  E  E       E  E  E  E  E  E  E  E       Q     E  E  E  E  E  E
  |---------------------5--5----|--0--0-----0-----0----------|--0--0-----0-----0----------|-------------------(5)(5)---|
  |--3--------3--1s3----3--3----|--------------3-------------|--------------3-------------|--------------3-(x)-3-(3)---|
  |--------2--------------------|-----------2--------2--2----|--------2-----------2--2----|-------(2)-2----------------|
  |--0--------------(0)---------|--------2--------2----------|--L--------------2----------|--0----------------(0)------|
  |-----------------------------|--0-------------------------|--L----------(0)------------|----------------------------|
  |-----------------------------|----------------------------|----------------------------|----------------------------|


     Q     E  E  E  E  E  E       Q     E  E  E  E  E  E       Q     E  E  E  E  E  E       E  E  E  E  E  E  E  E
  |-------------------(5)(5)---|--------0--0--0-------------|--------------5-----5--5----|-----------0--0-----0-------|
  |--------3--3--1--Ls-3--3----|--------------1-----3--1----|--3--------3--6-----6-------|-----3--------1-------------|
  |--------2-------------------|-----------2----------------|--------2-------------------|-----------2--------2--2----|
  |--0-------------(0)---------|--------2--------2----------|--0--------------0----------|--------2--------2----------|
  |----------------------------|--0-------------------------|----------------------------|--0-------------------------|
  |----------------------------|----------------------------|----------------------------|----------------------------|


     Q     E  E  E  E  E  E       Q     E  E  Q     E  E       Q     E  E  Q     E  E       Q     E  E  E  E  E  E
  |--------0--0----------------|----------------------------|-------------------(5)(5)---|-------------(1)------(1)---|
  |--------------3-----1-------|----------------------------|--------------3-----3-------|--------3--3--1-----3-------|
  |-----------2--------2--2----|--2-----2-----2-----0-------|--2--------2----------------|--------2-------------------|
  |--------2--------2----------|--0--------0-----------0----|--0-----0-------------------|--0-------------(0)---------|
  |--0-------------------------|----------------------------|----------------------------|----------------------------|
  |----------------------------|--3-------------------------|--3-------------------------|----------------------------|


     E  E  E  E  E  E  E  E       E  E  E  E  E  E  E  E       E  E  E  E  E  E  E  E       E  E  E  E  E  E  E  E 
  |--------0--3--0-------------|--------------5----(5)-5----|--3--3--3-----3--3--1-------|--3--3--3--3--1--3----------|
  |--------------------3--1----|--3----(3)----6-----6--6----|----------(3)----------3----|----------(3)------(3)------|
  |--------2-----------2-------|-----2-----2----------------|-----------0--------0-------|-----------0-----------0----|
  |-----2-----------2----------|--0-------------(0)---------|--------0--------0----------|--------0--------0----------|
  |--0-------------------------|----------------------------|----------------------------|----------------------------|
  |----------------------------|----------------------------|--3-------------------------|--3-------------------------|

                                                                                  Fade Out --------------------------->
     E  E  E  E  E  E  E  E       Q     E  E  S E  S E  E       Q     E  E  E  E  E  E       E  E  E  E  E  E  E  E
  |--3--3--3--3--3-----1-------|-----------------------------|--------------5-----5--5----|--------------5-----5--5----|
  |----------(3)----------3----|--3-----------3s5--L----1----|--3--------3--6-----6-------|--3--3-----3--6-----6-------|
  |-----------0----(0)----0----|--2-----2--2--------(2)------|--------2-------------------|--------2-------------------|
  |--------0-----0-----0-------|--2-----2--2-----------------|--0-------------(0)---------|--0-------------(0)---------|
  |----------------------------|--0--------------------------|----------------------------|----------------------------|
  |--3-------------------------|-----------------------------|----------------------------|----------------------------|

   ------------------------->
     Q     E  H           E       W
  |--------5--L----------------|----------------------------||
  |--------6--L----------------|----------------------------||
  |----------------------------|----------------------------||
  |--0--------0-----------L----|--L-------------------------||
  |----------------------------|----------------------------||
  |----------------------------|----------------------------||

Login or Register to remove this ad.

2 comments on Karada no Uta ~Sasame~

Sounds good! :)

5

Sounds good! :)

Thanks Man :3

Thanks Man :3