Ads

Laplace (Lunar Knights) Guitar Tab

Submitted: Sep 30, 2010 by Kiku (Last updated: Aug 06, 2011)

5
Average: 5 (1 vote)
Download | Listen
Game: Lunar Knights
Composer(s): Norihiko Hibino
Style: Transcription

AutoScroll: Slow | Medium | Fast
Laplace
Lunar Knights (Bokura no Taiyou: Django and Sabata)
Norihiko Hibino
Tabbed by Kiku
2010-09-29

                                    Laplace                                     


                                                                 Norihiko Hibino
Lead Guitar



             Q    E  Q    Q    E     Q    Q    Q    E  E   
E||-------|--7------------7-------|--5--------------------|
B||-------|-------5--8---------5--|-------7------------8--|
G||-------|-----------------------|------------7----4-----|
D||-------|-----------------------|-----------------------|
A||-------|-----------------------|-----------------------|
E||-------|-----------------------|-----------------------|


  H        E  E  E  E     E  E  E  E  E  E  E  E     E  E  E  Q    Q    E   
-----------------------|-----------2--5--3--2-----|--7--5------------------|
--L-----------------5--|--L-----3--------------3--|--------7--8----7-------|
--------------5--7-----|-----4--------------------|---------------------7--|
-----------------------|--------------------------|------------------------|
-----------------------|--------------------------|------------------------|
-----------------------|--------------------------|------------------------|


  E  Q    Q    Q    E     W                   W                 
-----------------------|-------------------|-------------------|
-----------------------|-------------------|-------------------|
--L--4---------7----4--|--L----------------|--L----------------|
----------7------------|-------------------|-------------------|
-----------------------|-------------------|-------------------|
-----------------------|-------------------|-------------------|


  E  E  E  Q    Q    E     E  Q    Q    Q    E     E  E  H.            
-----5------------------|-----------------------|---------------------|
--------7--8----7----5--|--L------------5----5--|--5--7---------------|
--5---------------------|-----7----5------------|--------7------------|
------------------------|-----------------------|---------------------|
------------------------|-----------------------|---------------------|
------------------------|-----------------------|---------------------|


  W                   E  E  E  Q    Q    E      E  H.           E   
-------------------|-------------------------|---------------------|
-------------------|-------------------------|---------------------|
--L----------------|-----------4----5----5b--|--L--4---------------|
-------------------|--7--5--7----------------|---------------------|
-------------------|-------------------------|---------------------|
-------------------|-------------------------|---------------------|


  E  E  E  Q    Q    E      E  H.           E     E  E  E  Q    Q    E   
-------------------------|---------------------|------------------------|
----------------5----5b--|--L--3---------------|----------------5----7--|
--5--4--5--7-------------|---------------------|--5--4--5--7------------|
-------------------------|---------------------|------------------------|
-------------------------|---------------------|------------------------|
-------------------------|---------------------|------------------------|


  E  Q    Q     E  Q       W                   W                 
------------------------|-------------------|-------------------|
--L--8----8b----8--7----|--L----------------|--L----------------|
------------------------|-------------------|-------------------|
------------------------|-------------------|-------------------|
------------------------|-------------------|-------------------|
------------------------|-------------------|-------------------|


   E   E   E   Q     Q     E      E   Q     Q     Q     E   
------17--14--15----14--------|----------------------------|
--12----------------------15--|---L--------------15----12--|
------------------------------|------16----14--------------|
------------------------------|----------------------------|
------------------------------|----------------------------|
------------------------------|----------------------------|


   W                    W                    E   E   E   Q     Q     E   
--------------------|--------------------|------17--14--15----14--------|
---L----------------|---L----------------|--13----------------------17--|
--------------------|--------------------|------------------------------|
--------------------|--------------------|------------------------------|
--------------------|--------------------|------------------------------|
--------------------|--------------------|------------------------------|


   E   Q     Q     Q     E      E   E    H.               W                 
----------------------------|-------------------------|--------------------|
---L--15----13----17----17--|--17--17b--15------------|---L----------------|
----------------------------|-------------------------|--------------------|
----------------------------|-------------------------|--------------------|
----------------------------|-------------------------|--------------------|
----------------------------|-------------------------|--------------------|


  E  E  E  E  E  E  E  E     E  E  Q    E  E  E  E     Q.      Q.     Q     
--------------------------|-------------------------|----------------------|
--------------------------|--------5----5--5-----5--|--7b------5-----------|
--------------4--5--7--4--|--5--7-------------7-----|-----------------7----|
-----7--5--7--------------|-------------------------|----------------------|
--------------------------|-------------------------|----------------------|
--------------------------|-------------------------|----------------------|


  H        E  E  E  E     Q.      Q.     Q       Q    Q    Q     Q     
-----------------------|----------------------|-----------------------|
-----------------------|--7b------7------5----|--L----5----8b----8----|
--L-----------4-----4--|----------------------|-----------------------|
-----------------7-----|----------------------|-----------------------|
-----------------------|----------------------|-----------------------|
-----------------------|----------------------|-----------------------|


  W                     W                   E  E  E  E  E  E  E  E   
-------------------|---------------------|--------------------------|
--7----------------|--/12----------------|--8--7--5--------7-----5--|
-------------------|---------------------|-----------7--------------|
-------------------|---------------------|--------------------------|
-------------------|---------------------|--------------------------|
-------------------|---------------------|--------------------------|


  E  E  E  E  E  E  E  E     E  E  E  E  E  E  E  E     W                 
--------------------------|--------------------------|-------------------|
--------------------------|--------------------------|-------------------|
-----4-----7-----6--------|--------4--------4--6--8--|--L----------------|
--------------------7-----|--5--7-----5--7-----------|-------------------|
-----------------------7--|--------------------------|-------------------|
--------------------------|--------------------------|-------------------|


   H          Q      E  E      E  E  E   S  S E  E  E  E   
---------------------------|------------------------------|
--10b--------10b----10--8--|--10--8--7h--8p-7-------------|
---------------------------|------------------9--7--------|
---------------------------|------------------------9--7--|
---------------------------|------------------------------|
---------------------------|------------------------------|


  E   E  E   E  E   E  E  E     E  E  E  E  Q    E  E   
-----------------------------|-------------------------|
-----------------------------|-------------------------|
-----------------------------|--7-----9-----7----9--7--|
--L-------------7------7--9--|-----9-----9-------------|
-----10--7--10-----10--------|-------------------------|
-----------------------------|-------------------------|


  Q    E  E  E   E  E   E       E   E  E   Q      E     E   E   
----------------------------|------------------------------12--|
-------8-----8--10-----10b--|---L--10--8--15b----15pb--15------|
--9-------9-----------------|----------------------------------|
----------------------------|----------------------------------|
----------------------------|----------------------------------|
----------------------------|----------------------------------|


   H          E     E     E   E       E   H.            E   
----------------------------------|------------------------|
--17b--------17pb--17pb--17--17b--|--17--15-------------L--|
----------------------------------|------------------------|
----------------------------------|------------------------|
----------------------------------|------------------------|
----------------------------------|------------------------|


  E   Q.       Q.      E      E   S   S  E   E   E   E   E   E   
-----15b------15------14--|---L--15p-14-------------------------|
--------------------------|-------------15----------------------|
--------------------------|-----------------14--12--------------|
--------------------------|-------------------------16--12------|
--------------------------|---------------------------------14--|
--------------------------|-------------------------------------|


   E   E   E   Q     E   E   E      E     E   E   Q.      E   E   
--------------------------------|--------------------------------|
--------------------------------|--------------------------------|
--------------------------------|--------------------------------|
--------------12--------12--14--|--14br--12--14--12--------------|
--12--14--12--------14----------|------------------------14--12--|
--------------------------------|--------------------------------|


         PM  PM  PM  PM                                       
   Q     E   E   E   Q     E      E   E   E   E  Q     E  E   
------------------------------|------------------------------|
------------------------------|------------------------------|
------------------------------|------------------------------|
------------------------------|------------------9----12--9--|
--10----------------10----12--|---L------10--12--------------|
--------12--10--12------------|------12----------------------|


   E  E   E   Q      E  E   E      E  E   H.            
-------------------------------|-----------------------|
-------------------------------|-----------------------|
------9--11--11b----11--9------|------9----------------|
--12-----------------------12--|---L-----12------------|
-------------------------------|-----------------------|
-------------------------------|-----------------------|


  E   Q     E   E   Q     E      Q     Q     Q     E   E    
-----15--------12--15--------|--14----12-------------------|
-----------12------------12--|--------------15-------------|
-----------------------------|--------------------14--14b--|
-----------------------------|-----------------------------|
-----------------------------|-----------------------------|
-----------------------------|-----------------------------|


   Q.      S   S  E.   E.   E      E.   E.   E   Q     E   E   
-------------------------------|------------------------------|
-------------------------------|------------------------------|
---L------14p-12-14---12---11--|-------11---12--11------------|
-------------------------------|--14------------------14--12--|
-------------------------------|------------------------------|
-------------------------------|------------------------------|


   Q     E   E   E   E  E   E       E   E   E   E   E   E   E   E   
--------------------------------|----------------------------------|
--------------------------------|------15----------------------12--|
--------12------12--14-----14b--|---L------14--12--14--12--14------|
--14--------14------------------|----------------------------------|
--------------------------------|----------------------------------|
--------------------------------|----------------------------------|


  E   E   E   E   E   E   E   E      E   E   E   H        E   
---------12------14------15------|--17--15--17--19-----------|
-----12------12------12------12--|---------------------------|
---------------------------------|---------------------------|
---------------------------------|---------------------------|
---------------------------------|---------------------------|
---------------------------------|---------------------------|


   E   E   E   E   E   E   E   E      E   E   E   E   E   E   E   E   
------12--15--14----------12------|----------------------------------|
--12--------------15----------13--|------15----------------------15--|
----------------------14----------|--12------14------14------14------|
----------------------------------|--------------16------16----------|
----------------------------------|----------------------------------|
----------------------------------|----------------------------------|


   E   E   E   Q     Q     E      E   E   E   Q     Q    E   
--------------------12----14--|---L--12--14--15----17-------|
--13--12--13--15--------------|-----------------------------|
------------------------------|-----------------------------|
------------------------------|-----------------------------|
------------------------------|-----------------------------|
------------------------------|-----------------------------|


   E   Q     Q     Q     E      W                  
--19--19----19----19----19--|---L----------------||
----------------------------|--------------------||
----------------------------|--------------------||
----------------------------|--------------------||
----------------------------|--------------------||
----------------------------|--------------------||




Duration Legend
---------------
W - whole
H - half
Q - quarter
E - 8th
S - 16th
T - 32nd
X - 64th
. - note dotted
|-n-|  - n-tuplets


Tablature Legend
----------------
L - tied note
x - dead note
g - grace note
(n) - ghost note
> - accentuded note
NH - natural harmonic
AH - artificial harmonic
TH - tapped harmonic
SH - semi harmonic
PH - pitch harmonic
h - hammer on
p - pull off
b - bend
br - bendRelease
pb - preBend
pbr - preBendRelease
brb - bendReleaseBend
\n/ - tremolo bar dip
\n - tremolo bar dive
-/n - tremolo bar Release up
/n\ - tremolo bar inverted dip
/n - tremolo bar return
-\n - tremolo bar Release down
S - shift slide
s - legato slide
/ -  slide into from below or out of upwards
\ -  slide into from above or out of downwards
~ - vibrato
W - wide vibrato
tr - trill
TP - tremolo picking
T - tapping
S - slap
P - pop
< - fade in
^ - brush up
v - brush down
Login or Register to remove this ad.

1 comment on Laplace

Gratitude

Whoever you are, thank you, Kiku!