Field to Tomorrow (Lunar 2: Eternal Blue) Guitar Tab

Submitted: Aug 20, 2013 by Calebelijah

0
Download | Listen
Game: Lunar 2: Eternal Blue
Composer(s): Noriyuki Iwadare
Style: 2 or more instruments, Transcription
Series: Lunar

Click here for a video example.

AutoScroll: Slow | Medium | Fast
Title: Field to Tomorrow
Album: Lunar 2 Eternal Blue
Tempo = 145



Melody1
E |----|----|----|----|
B |----|----|----|----|
G |----|----|----|----|
D |----|----|----|----|
A |----|----|----|----|
E |----|----|----|----|


--------------------------------------------------------------------------------
--------------------------------------------------------------------------------
--------------------------------------------------------------------------------
--8/10----------------------------------8---------------------------------------
-----------------------------------------------------8L-------------------------
--------------------------------------------------------------------------------


-----------------------|----------------------------|
-----------------------|----------------------------|
-----------------------|-----------------------10---|
-----------------------|-----------------10-8-------|
-----------------------|--8-------------------------|
-----------------------|----------------------------|


----------------------------|----------------|----------------------------|
----------------------------|----------------|----------------------------|
--8--------10---------------|----------------|----------------------------|
--------------10L-----------|--10----8-------|--------8-------------------|
----------------------------|-----------11---|--9--11---------------------|
----------------------------|----------------|----------------------------|


----------|-------|----------------------------------------------------|
----------|-------|-----------------------------------------9--10-11---|
----------|-------|--------------------------------------10------------|
-----8----|-------|----------------------------------------------------|
--11------|--8L---|--8-------------------------------------------------|
----------|-------|----------------------------------------------------|


----------------------------|-----------------------13---|
--13-------11---------------|-----------------13-11------|
--------------10L-----------|--10------------------------|
----------------------------|----------------------------|
----------------------------|----------------------------|
----------------------------|----------------------------|


--11-------13---------------|----------------|--------------------11------|
--------------13L-----------|--13----11------|--------11------------------|
----------------------------|-----------13---|--11-13---------------------|
----------------------------|----------------|----------------------------|
----------------------------|----------------|----------------------------|
----------------------------|----------------|----------------------------|


----------|-------|----------------------------------------------------|
--13------|--11L--|--11------------------------------------------------|
-----13---|-------|-----------------------------------------------8h---|
----------|-------|--------------------------------------------11------|
----------|-------|----------------------------------------------------|
----------|-------|----------------------------------------------------|


----------------|----------------------|-------|----------------|
----------------|----------------------|-------|----------------|
--10-------8s---|--13-------11-10------|--10L--|--10-------10---|
----------------|-----------------13---|-------|----------------|
----------------|----------------------|-------|----------------|
----------------|----------------------|-------|----------------|


----------------|----------------------|--------------------8L------|
----------------|-----------------11---|--10-------11---------------|
--8--------10---|--13-------11-10------|----------------------------|
----------------|----------------------|----------------------------|
----------------|----------------------|----------------------------|
----------------|----------------------|----------------------------|


--8--------------------8----|--9--8--11-9-----8----------|
--------------------11------|--------------------11-9----|
-----------------10---------|----------------------------|
----------------------------|----------------------------|
----------------------------|----------------------------|
----------------------------|----------------------------|


--------------------------------------------8-------|
--11----------9-----------------------11------------|
--------------------10----------10------------------|
----------------------------------------------------|
----------------------------------------------------|
----------------------------------------------------|


--9--8--11-9-----8--9--11---|--13-9----------------------|
----------------------------|-----------11---------------|
----------------------------|-----------------11---------|
----------------------------|----------------------------|
----------------------------|----------------------------|
----------------------------|----------------------------|


--11-8----------------------|-------|----------|----|----|----|----|
-----------9----------------|--11L--|--11------|----|----|----|----|
-----------------10---------|-------|----------|----|----|----|----|
----------------------------|-------|----------|----|----|----|----|
----------------------------|-------|----------|----|----|----|----|
----------------------------|-------|----------|----|----|----|----|


--------------------------------------------------------------------------------
--------------------------------------------------------------------------------
--------------------------------------------------------------------------------
--8--10----------------------------------8--------------------------------------
-----------------------------------------------------8L-------------------------
--------------------------------------------------------------------------------


-----------------------|----------------------------|
-----------------------|----------------------------|
-----------------------|-----------------------10---|
-----------------------|-----------------10-8-------|
-----------------------|--8-------------------------|
-----------------------|----------------------------|


----------------------------|----------------|----------------------------|
----------------------------|----------------|----------------------------|
--8--------10---------------|----------------|----------------------------|
--------------10L-----------|--10----8-------|--------8-------------------|
----------------------------|-----------11---|--9--11---------------------|
----------------------------|----------------|----------------------------|


----------|-------|----------------------------------------------------|
----------|-------|-----------------------------------------9--10-11---|
----------|-------|--------------------------------------10------------|
-----8----|-------|----------------------------------------------------|
--11------|--8----|--8-------------------------------------------------|
----------|-------|----------------------------------------------------|


----------------------------|-----------------------13---|
--13-------11---------------|-----------------13-11------|
--------------10L-----------|--10------------------------|
----------------------------|----------------------------|
----------------------------|----------------------------|
----------------------------|----------------------------|


--11-------13---------------|----------------|--------------------11------|
--------------13L-----------|--13----11------|--------11------------------|
----------------------------|-----------13---|--11-13---------------------|
----------------------------|----------------|----------------------------|
----------------------------|----------------|----------------------------|
----------------------------|----------------|----------------------------|


----------|-------|----------------------------------------------------|
--13------|--11L--|--11------------------------------------------------|
-----13---|-------|-----------------------------------------------8h---|
----------|-------|--------------------------------------------11------|
----------|-------|----------------------------------------------------|
----------|-------|----------------------------------------------------|


----------------|----------------------|-------|----------------|
----------------|----------------------|-------|----------------|
--10-------8s---|--13-------11-10------|--10L--|--10-------10---|
----------------|-----------------13---|-------|----------------|
----------------|----------------------|-------|----------------|
----------------|----------------------|-------|----------------|


----------------|----------------------|--------------------8L------|
----------------|-----------------11---|--10-------11---------------|
--8--------10---|--13-------11-10------|----------------------------|
----------------|----------------------|----------------------------|
----------------|----------------------|----------------------------|
----------------|----------------------|----------------------------|


--8--------------------8----|--9--8--11-9-----8----------|
--------------------11------|--------------------11-9----|
-----------------10---------|----------------------------|
----------------------------|----------------------------|
----------------------------|----------------------------|
----------------------------|----------------------------|


--------------------------------------------8-------|
--11----------9-----------------------11------------|
--------------------10----------10------------------|
----------------------------------------------------|
----------------------------------------------------|
----------------------------------------------------|


--9--8--11-9-----8--9--11---|--13-9----------------------|
----------------------------|-----------11---------------|
----------------------------|-----------------11---------|
----------------------------|----------------------------|
----------------------------|----------------------------|
----------------------------|----------------------------|


--11-8----------------------|-------|----------||
-----------9----------------|--11L--|--11------||
-----------------10---------|-------|----------||
----------------------------|-------|----------||
----------------------------|-------|----------||
----------------------------|-------|----------||




Melody2

E||-------|-------|-------|-------|-------|-------|-------|-------|-------|
B||-------|-------|-------|-------|-------|-------|-------|-------|-------|
G||-------|-------|-------|-------|-------|-------|-------|-------|-------|
D||-------|-------|-------|-------|-------|-------|-------|-------|-------|
A||-------|-------|-------|-------|-------|-------|-------|-------|-------|
E||-------|-------|-------|-------|-------|-------|-------|-------|-------|


                          H.            E   E      H.            E  E   
-------|-------|-------|-----------------------|-----------------------|
-------|-------|-------|-----------------------|-----------------------|
-------|-------|-------|-----------------------|-----------------------|
-------|-------|-------|--8------------10--11--|--10-------------L-----|
-------|-------|-------|-----------------------|-----------------------|
-------|-------|-------|-----------------------|-----------------------|


             |-----3----|                                                      
  Q.     E   Q    Q     Q       H         H           E   E   H         E  E   
-----------------------------|---------------------|--------------------------|
-----------------------------|---------------------|--------------------------|
------------10----8----------|--8------------------|--------------------------|
---------8-------------11----|-----------10--------|--8--10--11--------10--8--|
-----------------------------|---------------------|--------------------------|
-----------------------------|---------------------|--------------------------|


   Q    Q     Q    Q        E   E   E  E   H           H.           Q     
------------------------|---------------------------|--------------------|
------------------------|---------------------------|--------------------|
-------------------8----|--------------8--10--------|--8-----------------|
-------------10---------|--11--10--11---------------|--------------------|
--11----8---------------|---------------------------|--------------------|
------------------------|---------------------------|--------------------|


  E   E  E  H        E     W                   Q     Q     E   E   Q     
---------8--9--------L--|--L----------------|-------13----11--13--------|
-----11-----------------|-------------------|---------------------13----|
------------------------|-------------------|---------------------------|
------------------------|-------------------|---------------------------|
------------------------|-------------------|---------------------------|
------------------------|-------------------|---------------------------|


  Q     Q     H            E   E   E   E   E   E   E   E      W                 
-----------------------|----------------------------------|--------------------|
--9----11----12--------|--11------13--14----------14--11--|--14----------------|
-----------------------|------11----------11--10----------|--------------------|
-----------------------|----------------------------------|--------------------|
-----------------------|----------------------------------|--------------------|
-----------------------|----------------------------------|--------------------|


   Q     S S  Q     S S  Q       Q    S   S   S S  S S   S   S  S   S   S  S  
--13----13---11----11---13----|----------------------------------------------|
------------------------------|-------------------------------------------10-|
------------------------------|----------------------------------------------|
------------------------------|-----------------8----8h-10h-12-10h-12h-14----|
------------------------------|-------8h-10h-12---12-------------------------|
------------------------------|----------------------------------------------|


   Q    H.              Q    E   Q    Q.         Q.     E   Q.     E   
---------------------|-----------------------|------------------------|
--11-----------------|-----------------------|------------------------|
---------------------|-----------------------|------------------------|
---------------------|--8-------10-----------|--11---------10---------|
---------------------|-----------------------|------------------------|
---------------------|-----------------------|------------------------|


  W                    W                   W                 
-------------------|--------------------|-------------------|
-------------------|--------------------|-------------------|
-------------------|--------------------|-------------------|
--8----------------|--10----------------|--8----------------|
-------------------|--------------------|-------------------|
-------------------|--------------------|-------------------|


  H        H                                                                 
--------------------|-------|-------|-------|-------|-------|-------|-------|
--------------------|-------|-------|-------|-------|-------|-------|-------|
--------------------|-------|-------|-------|-------|-------|-------|-------|
--L-----------------|-------|-------|-------|-------|-------|-------|-------|
--------------------|-------|-------|-------|-------|-------|-------|-------|
--------------------|-------|-------|-------|-------|-------|-------|-------|


                                          H.            E   E   
-------|-------|-------|-------|-------|-----------------------|
-------|-------|-------|-------|-------|-----------------------|
-------|-------|-------|-------|-------|-----------------------|
-------|-------|-------|-------|-------|--8------------10--11--|
-------|-------|-------|-------|-------|-----------------------|
-------|-------|-------|-------|-------|-----------------------|


                                     |-----3----|                           
   H.            E  E     Q.     E   Q    Q     Q       H         H         
-----------------------|-----------------------------|---------------------|
-----------------------|-----------------------------|---------------------|
-----------------------|------------10----8----------|--8------------------|
--10-------------L-----|---------8-------------11----|-----------10--------|
-----------------------|-----------------------------|---------------------|
-----------------------|-----------------------------|---------------------|


  E   E   H         E  E      Q    Q     Q    Q        E   E   E  E   H         
--------------------------|------------------------|---------------------------|
--------------------------|------------------------|---------------------------|
--------------------------|-------------------8----|--------------8--10--------|
--8--10--11--------10--8--|-------------10---------|--11--10--11---------------|
--------------------------|--11----8---------------|---------------------------|
--------------------------|------------------------|---------------------------|


  H.           Q       E   E  E  H        E     W                 
--------------------|---------8--9--------L--|--L----------------|
--------------------|-----11-----------------|-------------------|
--8-----------------|------------------------|-------------------|
--------------------|------------------------|-------------------|
--------------------|------------------------|-------------------|
--------------------|------------------------|-------------------|


  Q     Q     E   E   Q       Q     Q     H         
-------13----11--13--------|-----------------------|
---------------------13----|--9----11----12--------|
---------------------------|-----------------------|
---------------------------|-----------------------|
---------------------------|-----------------------|
---------------------------|-----------------------|


   E   E   E   E   E   E   E   E      W                 
----------------------------------|--------------------|
--11------13--14----------14--11--|--14----------------|
------11----------11--10----------|--------------------|
----------------------------------|--------------------|
----------------------------------|--------------------|
----------------------------------|--------------------|


   Q     S S  Q     S S  Q       Q    S   S   S S  S S   S   S  S   S S  S  
--13----13---11----11---13----|--------------------------------------------|
------------------------------|-----------------------------------------10-|
------------------------------|---------------------------------------9----|
------------------------------|-----------------8----8h-10h-12-10h-12------|
------------------------------|-------8h-10h-12---12-----------------------|
------------------------------|--------------------------------------------|


   Q    H.              Q    E   Q    Q.         Q.     E   Q.     E   
---------------------|-----------------------|------------------------|
--11-----------------|-----------------------|------------------------|
---------------------|-----------------------|------------------------|
---------------------|--8-------10-----------|--11---------10---------|
---------------------|-----------------------|------------------------|
---------------------|-----------------------|------------------------|


  W                    W                   W                 
-------------------|--------------------|-------------------|
-------------------|--------------------|-------------------|
-------------------|--------------------|-------------------|
--8----------------|--10----------------|--8----------------|
-------------------|--------------------|-------------------|
-------------------|--------------------|-------------------|


  H        H          
--------------------||
--------------------||
--------------------||
--L-----------------||
--------------------||
--------------------||




Pizzicato

     S S S E.  S E.  S E.  S S    S S S E.  S S S S S E.  S S  
E||--6---6-----6-----6-----6---|--8---8-----8---8---8-----8---|
B||--6---6-----6-----6-----6---|--9---9-----9---9---9-----9---|
G||--6---6-----6-----6-----6---|--8---8-----8---8---8-----8---|
D||----------------------------|------------------------------|
A||----------------------------|------------------------------|
E||----------------------------|------------------------------|


   S S  S E.   S E.   S E.   S S    S S S E.  S S S S S E.  S S  
---9----9------9------9------9---|--8---8-----8---8---8-----8---|
--11---11-----11-----11-----11---|--9---9-----9---9---9-----9---|
--10---10-----10-----10-----10---|--8---8-----8---8---8-----8---|
---------------------------------|------------------------------|
---------------------------------|------------------------------|
---------------------------------|------------------------------|


  S S S E.  S E.  S E.  S S    S S S E.  S S S S S E.  S S  
--6---6-----6-----6-----6---|--8---8-----8---8---8-----8---|
--6---6-----6-----6-----6---|--9---9-----9---9---9-----9---|
--6---6-----6-----6-----6---|--8---8-----8---8---8-----8---|
----------------------------|------------------------------|
----------------------------|------------------------------|
----------------------------|------------------------------|


  S S S E.  S E.  S E.  S S    S S S E.  S S S S S E.  S S  
--8---8-----8-----8-----8---|--8---8-----8---8---8-----8---|
--7---7-----7-----7-----7---|--9---9-----9---9---9-----9---|
--6---6-----6-----6-----6---|--8---8-----8---8---8-----8---|
----------------------------|------------------------------|
----------------------------|------------------------------|
----------------------------|------------------------------|


  S S S E.  S E.  S E.  S S    S S S E.  S S S S S E.  S S  
--6---6-----6-----6-----6---|--8---8-----8---8---8-----8---|
--7---7-----7-----7-----7---|--9---9-----9---9---9-----9---|
--6---6-----6-----6-----6---|--8---8-----8---8---8-----8---|
----------------------------|------------------------------|
----------------------------|------------------------------|
----------------------------|------------------------------|


  S S S E.  S E.  S E.  S S    S S  S S S S S S  S S S S S S  S S  
--6---6-----6-----6-----6---|--8----------------11----------------|
--6---6-----6-----6-----6---|---------------9--------9------------|
--6---6-----6-----6-----6---|-----------8----------------8--------|
----------------------------|------10------------------------10---|
----------------------------|-------------------------------------|
----------------------------|-------------------------------------|


  S S S E.  S E.  S E.  S S    S S S E.  S S S S S E.  S S  
--6---6-----6-----6-----6---|--8---8-----8---8---8-----8---|
--6---6-----6-----6-----6---|--9---9-----9---9---9-----9---|
--6---6-----6-----6-----6---|--8---8-----8---8---8-----8---|
----------------------------|------------------------------|
----------------------------|------------------------------|
----------------------------|------------------------------|


  S S S E.  S E.  S E.  S S    S S S E.  S S S S S E.  S S  
--8---8-----8-----8-----8---|--8---8-----8---8---8-----8---|
--7---7-----7-----7-----7---|--9---9-----9---9---9-----9---|
--6---6-----6-----6-----6---|--8---8-----8---8---8-----8---|
----------------------------|------------------------------|
----------------------------|------------------------------|
----------------------------|------------------------------|


  S S S E.  S E.  S E.  S S    S S S E.  S S S S S E.  S S  
--6---6-----6-----6-----6---|--8---8-----8---8---8-----8---|
--7---7-----7-----7-----7---|--9---9-----9---9---9-----9---|
--6---6-----6-----6-----6---|--8---8-----8---8---8-----8---|
----------------------------|------------------------------|
----------------------------|------------------------------|
----------------------------|------------------------------|


  S S S E.  S E.  S E.  S S    S S  S S S S S S  S S S S S S  S S          
--6---6-----6-----6-----6---|--8----------------11----------------|-------|
--6---6-----6-----6-----6---|---------------9--------9------------|-------|
--6---6-----6-----6-----6---|-----------8----------------8--------|-------|
----------------------------|------10------------------------10---|-------|
----------------------------|-------------------------------------|-------|
----------------------------|-------------------------------------|-------|


-------|-------|-------|-------|-------|-------|-------|-------|-------|-------|
-------|-------|-------|-------|-------|-------|-------|-------|-------|-------|
-------|-------|-------|-------|-------|-------|-------|-------|-------|-------|
-------|-------|-------|-------|-------|-------|-------|-------|-------|-------|
-------|-------|-------|-------|-------|-------|-------|-------|-------|-------|
-------|-------|-------|-------|-------|-------|-------|-------|-------|-------|


                          H.           E  S S    S S S E.  S E.  S E.  S S  
-------|-------|-------|------------------1---|--6---6-----6-----6-----6---|
-------|-------|-------|------------------2---|--6---6-----6-----6-----6---|
-------|-------|-------|------------------3---|--6---6-----6-----6-----6---|
-------|-------|-------|----------------------|----------------------------|
-------|-------|-------|----------------------|----------------------------|
-------|-------|-------|----------------------|----------------------------|


  S S S E.  S S S S S E.  S S     S S  S E.   S E.   S E.   S S  
--8---8-----8---8---8-----8---|---9----9------9------9------9---|
--9---9-----9---9---9-----9---|--11---11-----11-----11-----11---|
--8---8-----8---8---8-----8---|--10---10-----10-----10-----10---|
------------------------------|---------------------------------|
------------------------------|---------------------------------|
------------------------------|---------------------------------|


  S S S E.  S S S S S E.  S S    S S S E.  S E.  S E.  S S  
--8---8-----8---8---8-----8---|--6---6-----6-----6-----6---|
--9---9-----9---9---9-----9---|--6---6-----6-----6-----6---|
--8---8-----8---8---8-----8---|--6---6-----6-----6-----6---|
------------------------------|----------------------------|
------------------------------|----------------------------|
------------------------------|----------------------------|


  S S S E.  S S S S S E.  S S    S S S E.  S E.  S E.  S S  
--8---8-----8---8---8-----8---|--8---8-----8-----8-----8---|
--9---9-----9---9---9-----9---|--7---7-----7-----7-----7---|
--8---8-----8---8---8-----8---|--6---6-----6-----6-----6---|
------------------------------|----------------------------|
------------------------------|----------------------------|
------------------------------|----------------------------|


  S S S E.  S S S S S E.  S S    S S S E.  S E.  S E.  S S  
--8---8-----8---8---8-----8---|--6---6-----6-----6-----6---|
--9---9-----9---9---9-----9---|--7---7-----7-----7-----7---|
--8---8-----8---8---8-----8---|--6---6-----6-----6-----6---|
------------------------------|----------------------------|
------------------------------|----------------------------|
------------------------------|----------------------------|


  S S S E.  S S S S S E.  S S    S S S E.  S E.  S E.  S S  
--8---8-----8---8---8-----8---|--6---6-----6-----6-----6---|
--9---9-----9---9---9-----9---|--6---6-----6-----6-----6---|
--8---8-----8---8---8-----8---|--6---6-----6-----6-----6---|
------------------------------|----------------------------|
------------------------------|----------------------------|
------------------------------|----------------------------|


  S S  S S S S S S  S S S S S S  S S    S S S E.  S E.  S E.  S S  
--8----------------11----------------|--6---6-----6-----6-----6---|
---------------9--------9------------|--6---6-----6-----6-----6---|
-----------8----------------8--------|--6---6-----6-----6-----6---|
------10------------------------10---|----------------------------|
-------------------------------------|----------------------------|
-------------------------------------|----------------------------|


  S S S E.  S S S S S E.  S S    S S S E.  S E.  S E.  S S  
--8---8-----8---8---8-----8---|--8---8-----8-----8-----8---|
--9---9-----9---9---9-----9---|--7---7-----7-----7-----7---|
--8---8-----8---8---8-----8---|--6---6-----6-----6-----6---|
------------------------------|----------------------------|
------------------------------|----------------------------|
------------------------------|----------------------------|


  S S S E.  S S S S S E.  S S    S S S E.  S E.  S E.  S S  
--8---8-----8---8---8-----8---|--6---6-----6-----6-----6---|
--9---9-----9---9---9-----9---|--7---7-----7-----7-----7---|
--8---8-----8---8---8-----8---|--6---6-----6-----6-----6---|
------------------------------|----------------------------|
------------------------------|----------------------------|
------------------------------|----------------------------|


  S S S E.  S S S S S E.  S S    S S S E.  S E.  S E.  S S  
--8---8-----8---8---8-----8---|--6---6-----6-----6-----6---|
--9---9-----9---9---9-----9---|--6---6-----6-----6-----6---|
--8---8-----8---8---8-----8---|--6---6-----6-----6-----6---|
------------------------------|----------------------------|
------------------------------|----------------------------|
------------------------------|----------------------------|


  S S  S S S S S S  S S S S S S  S S                                          
--8----------------11----------------|-------|-------|-------|-------|-------|
---------------9--------9------------|-------|-------|-------|-------|-------|
-----------8----------------8--------|-------|-------|-------|-------|-------|
------10------------------------10---|-------|-------|-------|-------|-------|
-------------------------------------|-------|-------|-------|-------|-------|
-------------------------------------|-------|-------|-------|-------|-------|


-------|-------|-------|-------|-------|-------|-------|-------|-------|
-------|-------|-------|-------|-------|-------|-------|-------|-------|
-------|-------|-------|-------|-------|-------|-------|-------|-------|
-------|-------|-------|-------|-------|-------|-------|-------|-------|
-------|-------|-------|-------|-------|-------|-------|-------|-------|
-------|-------|-------|-------|-------|-------|-------|-------|-------|


-------||
-------||
-------||
-------||
-------||
-------||
Login or Register to remove this ad.