Main Theme (Luigi's Mansion) Guitar Tab

Submitted: Apr 13, 2019 by Emi

5
Average: 5 (3 votes)
Download | Listen
Game: Luigi's Mansion
Composer(s): Kazumi Totaka, Shinobu Tanaka
Style: Arrangement, Fingerstyle
Series: Mario

Click here for a video example.

AutoScroll: Slow | Medium | Fast
Title: Main Theme
SubTitle: Luigi's Mansion
Artist: Kazumi Totaka - Shinobu Tanaka
Arranged for Guitar by Emilien Delcour
Tempo = 82
Classical Guitar

Legend
L - tied note
h - hammer on/pull off
v - brush up


                                                                        
E |----------------------------|----------|----------------------------|
B |----------------------------|----------|----------------------------|
G |----------------------------|----------|----------------------------|
D |-----------2--1-----2-------|----------|-----------2--1-----2-------|
A |--0-------------------------|--0--0----|--0-------------------------|
E |----------------------------|----------|----------------------------|

                                                         
----------|-----0-----0-----------0----|----------------|
----------|--5-----5-----5-------------|--4--0----------|
----------|--------------------5-------|--2-------------|
----------|--------2-----------2-------|-----4-----4----|
--0--0----|--0-----------0-------------|--0-----0-------|
----------|----------------------------|----------------|

                                                          
----------------------------|----------------------------|
--3--3--3--3--3-----0--3----|--1-----------0-------------|
--1-----1-----1-------------|-----------3----------------|
--------0-----------0-------|--1-----------0-------------|
--2-----------2-------------|--------0-------------------|
----------------------------|--------------------0-------|

                                                                           
-----0-----0-----------0----|----------------|----------------------------|
--5-----5-----5-------------|--4--0----------|--3--3--3--3--3--------3----|
--------------------5-------|--2-------------|--1-----1-----1-----4-------|
--------2-----------2-------|-----4-----4----|--------0-----------0-------|
--0-----------0-------------|--0-----0-------|--2-----------2-------------|
----------------------------|----------------|----------------------------|

                                                          
--0-------------------------|--------------------5-------|
-----3--1--0----------------|--------0--1--5-------------|
--------------2-------------|--1--2--0-----3-------------|
--2-----0-------------------|----------------------------|
--------------0-------------|--1h-0----------------------|
----------------------------|----------------------------|

                                                          
--8-----------7-----11-12---|--11----10----------9--10---|
--7-----------9-------------|----------------------------|
--5-----------9-------------|--------10------------------|
--7-------------------------|----------------------------|
----------------------------|----------------------------|
--------------0-------------|----------------------------|

                                                          
--9-----8-----------7--8----|--7-----------6-------------|
----------------------------|-----------------------4----|
--------9-------------------|----------------------------|
----------------------------|----------------------------|
----------------------------|-----------------------6----|
----------------------------|--7-----------6-------------|

                                                                             
----------------------------|-------|----------------------------|----------|
--5--0----------------------|-------|----------------------------|----------|
--------3--4----------------|-------|-----------4--3-----4-------|----------|
--------------2-------------|--2----|--2-------------------------|--2--2----|
--7--2----------------------|-------|----------------------------|----------|
--------6--7--0-------------|--0----|--0-------------------------|--0--0----|

                                                                     
----------------------------|----------|----------------------------|
----------------------------|----------|--0-----0-----0--------0----|
-----------4--3-----4-------|----------|-----4-----4--------0-------|
--2-------------------------|--2--2----|----------------------------|
----------------------------|----------|--------2-----------2-------|
--0-------------------------|--0--0----|--0-----------0-------------|

                                                                           
----------------|----------------------------|----------------------------|
----------------|----------------------------|----------------------------|
--3-------------|--2--2--2--2--2--------2----|--0-------------------------|
-----4----------|--------------------4-------|-----------3--4-------------|
-----4-----4----|--------0-----------0-------|-----------1--2-----2-------|
--0-----0-------|--2-----------2-------------|--0-------------------------|

                                                                           
----------------------------|----------------|----------------------------|
--0-----0-----0--------0----|----------------|----------------------------|
-----4-----4--------0-------|--3-------------|--2--2--2--2--2--------2----|
----------------------------|-----4----------|--------------------4-------|
--------2-----------2-------|-----4-----4----|--------0-----------0-------|
--0-----------0-------------|--0-----0-------|--2-----------2-------------|

                             
----------------------------|
--0-------------------------|
-----2--0-------------------|
-----------4--2-------------|
--------------0-------------|
----------------------------|

                                                     
--------------------------------------------0-------|
--------------------------------------0-------------|
-----------------------------------0----------------|
--1--2--1--0--1--2--1--0--1--2--4-------------------|
----------------------------------------------------|
----------------------------------------------------|

                                                          
--3-----------2-----6--7----|--6-----5-----------4--5----|
--3-----------3-------------|--------7-----7-------------|
--3-----------1-------------|--6-----5-----5-------------|
--0-------------------------|-----------7----------------|
----------------------------|--------5-------------------|
--------------0-------------|----------------------------|

                                                          
--4-----3-----------2--3----|--2-----------1--------6----|
--------4-----4-------------|----------------------------|
--5-----3-----3-------------|--------------1-------------|
-----------5----------------|----------------------------|
--------3-------------------|----------------------------|
----------------------------|--2-------------------------|

                                                                             
--7-------------------------|-------|----------------------------|----------|
-----7--6--7--0-------------|--0----|----------------------------|----------|
----------------------------|-------|----------------------------|----------|
----------------------------|-------|-----------9--8-----9-------|----------|
----------------------------|-------|--7-------------------------|--7--7----|
--0-----------0-------------|-------|--0-------------------------|--0-------|

                                                                                
----------------------------|----------|----------------------------|----------|
----------------------------|----------|----------------------------|----------|
-----------9--8-----9-------|----------|----------------------------|----------|
--7-------------------------|--7--7----|-----------9--8-----9-------|----------|
--0-------------------------|--0-------|--7-------------------------|--7--7----|
----------------------------|----------|--0-------------------------|--0-------|

                                                                     
----------------------------|----------|--0-----0-----0--------0----|
----------------------------|----------|-----5-----5----------------|
-----------9--8-----9-------|----------|--------9-----------5-------|
--7-------------------------|--7--7----|--7-----------7-----7-------|
--0-------------------------|--0-------|----------------------------|
----------------------------|----------|----------------------------|

                                                                           
----------------|----------------------------|----------------------------|
----------------|--3--3--3--3--3-----0--3----|--1-----------0-------------|
--8-------------|--2--2--2--2--1-----0-------|-----------3----------------|
--9--9-----9----|--3--3--3--3--2-------------|--1-----------0-------------|
-----10---------|--0-------------------------|--------0-------------------|
--------0-------|--------------0-------------|--------------------0-------|

                                                                           
--0-----0-----0--------0----|----------------|----------------------------|
-----5-----5----------------|----------------|--3--3--3--3--3-----0--3----|
--------9-----------5-------|--8-------------|--2--2--2--2--1-----1-------|
--7-----------7-----7-------|--9--9-----9----|--3--3--3--3--2-------------|
----------------------------|-----10---------|--0-------------------------|
----------------------------|--------0-------|--------------0-------------|

                             
--0-------------------------|
-----3--1-----------0L------|
--2-----4-------------------|
--------------------1L------|
----------------------------|
----------------------------|

                          v
----------------------------------------------------|-------||
--0-------------------------------------------------|-------||
--------------------------2L------------------------|--2----||
--1--------------------2--2L------------------------|--2----||
--------------------0-----0L------------------------|--0----||
--------------0h-1--------1L------------------------|--1----||

Login or Register to remove this ad.