Ads

Game Boy Horror (Luigi's Mansion) Guitar Tab

Submitted: Aug 02, 2013 by

5
Average: 5 (1 vote)
Download | Listen
Game: Luigi's Mansion
Composer(s): Kazumi Totaka, Shinobu Tanaka
Style: Transcription
Series: Mario

AutoScroll: Slow | Medium | Fast
e---------------------------------------------------
B---------------------------------------------------
G---------------------------------------------------
D-----------------------------0---------------------
A-------------------------1-3-----------------------
E---3-1-3---3-1-3---3-1-3----------3-1-3------------

e---------------------------------------------------
B---------------------------------------------------
G---------------------------------------------------
D-----------------------------0---------------------
A-------------------------1-3-----------------------
E---3-1-3---3-1-3---3-1-3----------3-1-3------------

e--3-3-3--2-2-2--0--0-------------------------------
B---------------------------------------------------
G---------------------------------------------------
D---------------------------------------------------
A---------------------------------------------------
E---------------------------------------------------
Login or Register to remove this ad.