Ads

Overworld (Lufia & the Fortress of Doom) Guitar Tab

Submitted: Apr 28, 2011 by BacardiBreezer (Last updated: Apr 29, 2011)

4
Average: 4 (2 votes)
Download | Listen
Game: Lufia & the Fortress of Doom
Composer(s): Yasunori Shiono
Style: Transcription

AutoScroll: Slow | Medium | Fast
Overworld
Lufia and the Fortress of Doom
Composer: Yasunori Shiono
Tabbed by Bacardibreezer
4/28/11


e|---------------------------|-----------------------------|
B|---------------------------|-----------------------------|
G|--8-9-11-8~-----------8~---|--8-9-11-8~-----------11-----|
D|--------------11-9-11------|--------------11-9-11----11~-|
A|---------------------------|-----------------------------|
E|---------------------------|-----------------------------|


e|--------------|--------------------|-----------------|
B|--------------|--------------------|-----------------|
G|--------------|--------------------|--------------8~-|
D|--9-8-9----9--|--8-9-11~--8--------|--------6-5------|
A|---------7----|-------------9-7~---|--7--9-----------|
E|--------------|--------------------|-----------------|

e|---------------------------|-----------------------------|
B|---------------------------|-----------------------------|
G|--8-9-11-8~-----------8~---|--8-9-11-8~-----------11-----|
D|--------------11-9-11------|--------------11-9-11----11~-|
A|---------------------------|-----------------------------|
E|---------------------------|-----------------------------|


e|--------------|--------------------|
B|--------------|--------------------|
G|--------------|--------------------|
D|--9-8-9----9--|--8-9-11~---8-------|
A|---------7----|--------------9-11~-|
E|--------------|--------------------|


e|-----------------14-11~---|--19--18-------16--------14p13p12p11~---|
B|-----11-12-11-12----------|----------19----------------------------|
G|--13----------------------|-------------------16-------------------|
D|--------------------------|----------------------------------------|
A|--------------------------|----------------------------------------|
E|--------------------------|----------------------------------------|


e|-----------------14-11~---|--19--18-------16-18-19-18----16~--|
B|-----11-12-11-12----------|----------19---------------19------|
G|--13----------------------|-----------------------------------|
D|--------------------------|-----------------------------------|
A|--------------------------|-----------------------------------|
E|--------------------------|-----------------------------------|


e|-------------------------------14~---13p12p11~--|
B|--------14~-----------14~-----------------------|
G|--13-16---------13-16---------------------------|
D|------------------------------------------------|
A|------------------------------------------------|
E|------------------------------------------------|
Login or Register to remove this ad.