Ads

Summer (Lufia: Curse of the Sinistrals) Guitar Tab

Submitted: Mar 05, 2011 by Kiku

5
Average: 5 (1 vote)
Download | Listen
Game: Lufia: Curse of the Sinistrals
Composer(s): Yasunori Shiono
Style: Transcription
Series: Lufia

AutoScroll: Slow | Medium | Fast
Summer (Natsu)
Lufia: Curse of the Sinistrals (Estpolis: The Lands cursed by the Gods)
Composed by Yasunori Shiono
Tabbed by Kiku
2011-03-05


Note for the other mods: I have this tab listed under Lufia: Curse of the Sinistrals,
which is a re-imagining of the original Lufia II: Rise of the Sinistrals on the SNES.
Fundamentally, the tracks on CotS are exactly the same as RotS arrangement wise, only
that they're of higher sound quality. Comparisons can be made here:

http://www.youtube.com/watch?v=QCFbxvuoYmQ
http://www.youtube.com/watch?v=vBLxXaqU4wo


I never played the original Lufia II, so that's why I put this song under the RotS.
However, for consistency's sake, I won't object if anyone feels as if this should be
listed with the other Lufia II tabs. Of course, I'd rather leave it as it is, but some
people are picky about those sorts of things...


BPM: 185

                                Summer (Natsu)                                  


Melody
     S S S S S S S S S S S S S S S S    S S S S S S S S S S S S S S S S  
E||----------------------------------|----------------5-----5-7---5-7-8-|
B||------------------------5-----5-6-|----5-6-8-5-6-8---6-8-----8-------|
G||--------5-----5-7---5-7---5-7-----|--7-------------------------------|
D||--5-7-9---7-9-----9---------------|----------------------------------|
A||----------------------------------|----------------------------------|
E||----------------------------------|----------------------------------|


    E  E  H.              H        E  E  E  E     H.           Q     
|----------------------|-----------------------|--------------------|
|---5--6--8------------|--L--------------5--8--|--7------------8----|
|*---------------------|--------------5--------|--------------------|
|*---------------------|-----------------------|--------------------|
|----------------------|-----------------------|--------------------|
|----------------------|-----------------------|--------------------|


  H.            E  E     E  E  H.              Q.     E  E  E  E  E   
----------------------|---------------------|------------------------|
--8b------------L-----|-----5--6------------|--L---------6--5-----6--|
----------------------|--7------------------|------------------7-----|
----------------------|---------------------|------------------------|
----------------------|---------------------|------------------------|
----------------------|---------------------|------------------------|


  H        H           Q.     E  H           E  E  H.            
--------------------|---------------------|---------------------|
--5--------6--------|--7------8--L--------|--5--6--8------------|
--------------------|---------------------|---------------------|
--------------------|---------------------|---------------------|
--------------------|---------------------|---------------------|
--------------------|---------------------|---------------------|


  H        E  E  E  E     H.           Q       H.            E  E   
-----------------------|--------------------|----------------------|
--L--------------5--8--|--7------------8----|--8b------------L-----|
--------------5--------|--------------------|----------------------|
-----------------------|--------------------|----------------------|
-----------------------|--------------------|----------------------|
-----------------------|--------------------|----------------------|


  E  E  H.              Q    Q    Q    E  E     H.           Q     
---------------------|-----------------------|--------------------|
-----5--6------------|--6----5---------5-----|--------------------|
--7------------------|------------7-------5--|--L------------7----|
---------------------|-----------------------|--------------------|
---------------------|-----------------------|--------------------|
---------------------|-----------------------|--------------------|


  E  E  Q    Q    Q       H         H           E  E   Q     Q     Q     
-----------------------|--5--------12--------|--L-----12----------------|
-----------------------|---------------------|--------------15----13----|
--5-----5----4----3----|---------------------|--------------------------|
-----------------------|---------------------|--------------------------|
-----------------------|---------------------|--------------------------|
-----------------------|---------------------|--------------------------|


   E   E   E   H         E     H        Q     Q        H         H         
----------------------------|----------------------|----------------------|
--12--13--12----------------|----------------------|------------13--------|
--------------12---------L--|--L-------------------|----------------------|
----------------------------|----------------14----|--15------------------|
----------------------------|----------------------|----------------------|
----------------------------|----------------------|----------------------|


  E  E   Q     Q     Q        H.            Q        H.           E  E   
--------------------------|--12------------13----|--15------------L-----|
--L-----13----15----13----|----------------------|----------------------|
--------------------------|----------------------|----------------------|
--------------------------|----------------------|----------------------|
--------------------------|----------------------|----------------------|
--------------------------|----------------------|----------------------|


  H         H           E  E   Q     Q     Q        E   E   E   H        E   
--5--------12--------|--L-----12----------------|---------------------------|
---------------------|--------------15----13----|--12--13--12---------------|
---------------------|--------------------------|--------------12--------L--|
---------------------|--------------------------|---------------------------|
---------------------|--------------------------|---------------------------|
---------------------|--------------------------|---------------------------|


  H.           Q        H.            Q        Q.      Q.      Q     
--------------------|--15------------13----|------------------13----|
--------------------|----------------------|--13------15------------|
--L-----------------|----------------------|------------------------|
--------------------|----------------------|------------------------|
--------------------|----------------------|------------------------|
--------------------|----------------------|------------------------|


   W                   H.           Q       
--15----------------|--L------------------||
--------------------|---------------------||
--------------------|--------------------*||
--------------------|--------------------*||
--------------------|---------------------||
--------------------|---------------------||




Duration Legend
---------------
W - whole
H - half
Q - quarter
E - 8th
S - 16th
T - 32nd
X - 64th
. - note dotted
|-n-|  - n-tuplets


Tablature Legend
----------------
L - tied note
x - dead note
g - grace note
(n) - ghost note
> - accentuded note
NH - natural harmonic
AH - artificial harmonic
TH - tapped harmonic
SH - semi harmonic
PH - pitch harmonic
h - hammer on
p - pull off
b - bend
br - bendRelease
pb - preBend
pbr - preBendRelease
brb - bendReleaseBend
\n/ - tremolo bar dip
\n - tremolo bar dive
-/n - tremolo bar Release up
/n\ - tremolo bar inverted dip
/n - tremolo bar return
-\n - tremolo bar Release down
S - shift slide
s - legato slide
/ -  slide into from below or out of upwards
\ -  slide into from above or out of downwards
~ - vibrato
W - wide vibrato
tr - trill
TP - tremolo picking
T - tapping
S - slap
P - pop
< - fade in
^ - brush up
v - brush down
Login or Register to remove this ad.

2 comments on Summer

Nice, you should play the

5

Nice, you should play the original. I'm very biased toward it and I don't know if I want to play the remake, bc it just doesn't seem like the same game :/

Yeah, I don't think you'd

Yeah, I don't think you'd like it. The remake is an okay game, but I hear most Lufia fans hated the game for the changes they made to the game, like turning it into an action RPG. Read this for more cons of the game:

http://www.gamefaqs.com/boards/980073-lufia-curse-of-the-sinistrals/5707...