Ads

The Earth (Lufia 2) Guitar Tab

Submitted: Nov 22, 2010 by BacardiBreezer (Last updated: Nov 22, 2010)

0
Download | Listen
Game: Lufia 2
Composer(s): Yasunori Shiono
Style: Transcription

AutoScroll: Slow | Medium | Fast
"The Earth"
Lufia 2: Rise of the Sinistrals
Composer: Yasunori Shiono
Tabbed by Bacardibreezer
11/22/10

e|--16-14-19-16-----------12-14-------------16---14--12--11-------|
B|------------------14-16----------16----14-----------------12----|
G|------------------------------------16--------------------------|
D|----------------------------------------------------------------|
A|----------------------------------------------------------------|
E|----------------------------------------------------------------|

e|----------------------------------12--14--16---14-19-17-16----------14--19--17------|
B|---------------------14--16--17-------------------------------------------------16--|
G|--14-14--16---18--------------------------------------------------------------------|
D|------------------------------------------------------------------------------------|
A|------------------------------------------------------------------------------------|
E|------------------------------------------------------------------------------------|

e|--16-14-19-16-----------12-14-------------16---14--12--11-------|
B|------------------14-16----------16----14-----------------12----|
G|------------------------------------16--------------------------|
D|----------------------------------------------------------------|
A|----------------------------------------------------------------|
E|----------------------------------------------------------------|


e|----------------------------------12--14--16---14-19-17-16--------------14--12------|
B|---------------------14--16--17-------------------------------------16----------14--|
G|--14-14--16---18--------------------------------------------------------------------|
D|------------------------------------------------------------------------------------|
A|------------------------------------------------------------------------------------|
E|------------------------------------------------------------------------------------|

e|--------------------------------------------14--12--11--------------------------------|
B|---------------9-12-14------------12--14-----------------12~------14~----12~----------|
G|---------9-11---------------14-14-----------------------------------------------------|
D|--11-13-------------------------------------------------------------------------------|
A|--------------------------------------------------------------------------------------|
E|--------------------------------------------------------------------------------------|


e|----------------------------------------------------------|
B|----------------------16--14--12---------12~--------------|
G|--14--11-11-13--14~---------------13------------9~--------|
D|----------------------------------------------------------|
A|----------------------------------------------------------|
E|----------------------------------------------------------| 

e|---------------------14--12--11---------------------------|
B|-14--------12--14-----------------12~------14~----12~-----|
G|-----14-14------------------------------------------------|
D|----------------------------------------------------------|
A|----------------------------------------------------------|
E|----------------------------------------------------------|


e|----------------------------------------------------------|
B|----------------------------------------14-16~------------|
G|--14--11-11-13--14~------14-14-16-17----------------------|
D|----------------------------------------------------------|
A|----------------------------------------------------------|
E|----------------------------------------------------------| 

Login or Register to remove this ad.