Ads

Boss Battle (Lufia 2) Guitar Tab

Submitted: Apr 23, 2011 by BacardiBreezer (Last updated: Apr 23, 2012)

0
Download | Listen
Game: Lufia 2
Composer(s): Yasunori Shiono
Style: Transcription

Click here for a video example.

AutoScroll: Slow | Medium | Fast
Battle 2
Lufia 2: Rise of the Sinistrals
Composer: Yasunori Shiono
Tabbed by: Bacardibreezer, first few measures were done by Calebelijah
4/21/11

e|-----------12------------12-------------------------------|
B|--12-14-15------12-14-15------15h17p15-14-12-14--15-------|
G|-----------------------------------------------------11---|
D|----------------------------------------------------------|
A|----------------------------------------------------------|
E|----------------------------------------------------------|

e|-----------12------------12------------------12--17-14----|
B|--12-14-15------12-14-15------15h17p15-14-15--------------|
G|----------------------------------------------------------|
D|----------------------------------------------------------|
A|----------------------------------------------------------|
E|----------------------------------------------------------|

e|-----------12------------12-------------------------------|
B|--12-14-15------12-14-15------15h17p15-14-12-14--15-------|
G|-----------------------------------------------------11---|
D|----------------------------------------------------------|
A|----------------------------------------------------------|
E|----------------------------------------------------------|

e|------------------------------------------------|
B|-----10-----------------------------------------|
G|--9------11----------------9--------------------|
D|-------------9-9---9-11-12---12-11----11----9---|
A|-----------------------------------12-----------|
E|------------------------------------------------|

e|------------14~---12-17--19---------------------------------------10-9-7----9-7-----------|
B|--15-14--12------------------19~---------15-14-12----10-12-----10---------------11--------|
G|-------------------------------------14---------------------------------------------------|
D|------------------------------------------------------------------------------------------|
A|------------------------------------------------------------------------------------------|
E|------------------------------------------------------------------------------------------|

e|------------14~---12-17--19--------------------------14-14---14-12-17-15-14-12-14-----|
B|--15-14--12------------------19~-----15--14-------12----------------------------------|
G|---------------------------------------------14---------------------------------------|
D|--------------------------------------------------------------------------------------|
A|--------------------------------------------------------------------------------------|
E|--------------------------------------------------------------------------------------|

e|------22--21------------------------------------|
B|--19----------19--------------19--22-19---------|
G|--------------------21-19-21--------------------|
D|----------------------------------------21------|
A|------------------------------------------------|
E|------------------------------------------------|

e|--------------12---------17--15----14-12-----14---|
B|--15----14-15----15----------------------15-------|
G|--------------------14----------------------------|
D|--------------------------------------------------|
A|--------------------------------------------------|
E|--------------------------------------------------|

e|------22--21------------------------------------|
B|--19----------19--------------19--22-19---------|
G|--------------------21-19-21--------------------|
D|----------------------------------------21------|
A|------------------------------------------------|
E|------------------------------------------------|

e|---------------12~---17~---19~-----|
B|--15---14-15-----------------------|
G|-----------------------------------|
D|-----------------------------------|
A|-----------------------------------|
E|-----------------------------------|
Login or Register to remove this ad.