Ads

Battle #3 (Lufia 2) Guitar Tab

Submitted: Nov 27, 2010 by BacardiBreezer (Last updated: Jul 20, 2011)

0
Download | Listen
Game: Lufia 2
Composer(s): Yasunori Shiono
Style: Alternate picking, Transcription

This song is also called Sinistral Battle

AutoScroll: Slow | Medium | Fast
Battle #3 with Sinistrals
Lufia 2: Rise of the Sinistrals
Composer: Yasunori Shiono 
Tabbed by: Bacardibreezer
11/25/10
Updated 7/18/11

e|---------------------------------------------|
B|-----10-11-13--11-10-11--10----10------------|
G|--12------------------------12-----12-10-----|
D|---------------------------------------------|
A|---------------------------------------------|
E|---------------------------------------------| x2

e|---------------------------------------------| |----------------------------13-----13-14---18~--|
B|-----13-15-16--15-13-15--13----13------------| |-----13-15-13--15-16-15--16----16---------------|
G|--15------------------------15-----15-14-----| |--15--------------------------------------------|
D|---------------------------------------------| |------------------------------------------------|
A|---------------------------------------------| |------------------------------------------------|
E|---------------------------------------------| |------------------------------------------------|

e|--------------------------------|----------------------------13---------|	\
B|----------13-15-11--15--13------|---------13-------16~----16----15-13---|      \
G|--15~--15------------------15~--|--14--15----14-------------------------|       \
D|--------------------------------|---------------15----------------------|        \
A|--------------------------------|---------------------------------------|         \
E|--------------------------------|---------------------------------------|          \
                                                                                        x2
e|--------------------------------|----------------------------------|               /
B|----------13-15-11--15--13------|----------------------------------|              /
G|--15~--15------------------15~--|--14----12--11--12---14-14--12~---|             /
D|--------------------------------|----------------------------------|		  /
A|--------------------------------|----------------------------------|		 /
E|--------------------------------|----------------------------------|		/

e|--------------------------13-------------------|
B|--------15-13~---13-15-16-------16--15---------|
G|-----12---------------------------------14~----|
D|--13-------------------------------------------|
A|-----------------------------------------------|
E|-----------------------------------------------|

e|--------------------------------------------------------------------------10----10----10-11-10-11-13-14--|
B|-----------------------------------------------------10-11-10-11-13-11-13----13----13--------------------|
G|--------------------------------------------10-11-12-----------------------------------------------------|
D|-----------------10----10-12-10-12-13-12-13--------------------------------------------------------------|
A|--10-12-13-12-13----13-----------------------------------------------------------------------------------|
E|---------------------------------------------------------------------------------------------------------|

e|--------------------------13---14~---17~---|
B|--------15-13~---13-15-16------------------|
G|-----12------------------------------------|
D|--13---------------------------------------|
A|-------------------------------------------|
E|-------------------------------------------|

e|------------------------------------------------------------------------------------10-12-14--|
B|---------------------------------------------------------------------10----10-11-13-----------|
G|--------------------------------------------------9-11-9-11-12-11-12----12--------------------|
D|-----------------------------------------10-12-12---------------------------------------------|
A|--------9----9-10-9-10-12-10-12-13-12-13------------------------------------------------------|
E|--10-12---12----------------------------------------------------------------------------------|

e|-----------------------------------------------------------------------|
B|--------------------15-13----------------------------------------------|
G|--12-15-14-12----12-------15-14------12-15-14-12----12-----------------|
D|--------------15---------------------------------15----------------12--|
A|-------------------------------------------------------15-14~---15-----|
E|-----------------------------------------------------------------------|

e|---------------------------------------------------------------------|
B|--------------------15-13---------------------------12-----12-13-15--|
G|--12-15-14-12----12-------15-14------12-15-14-12---------------------|
D|--------------15---------------------------------15------------------|
A|---------------------------------------------------------------------|
E|---------------------------------------------------------------------|

e|--------------------13-11-----------------------------------------------|
B|--11-15-13-11----11-------15-13------11-15-13-11-----11-----------------|
G|--------------14----------------------------------14----12-12---14-15---|
D|------------------------------------------------------------------------|
A|------------------------------------------------------------------------|
E|------------------------------------------------------------------------|

e|--------------------13-11----------------------------------|
B|--11-15-13-11----11-------15-13------11-15-13-11-10--------|
G|--------------14-------------------------------------12~---|
D|-----------------------------------------------------------|
A|-----------------------------------------------------------|
E|-----------------------------------------------------------|

Login or Register to remove this ad.