Ads

Battle #3 (Lufia 2) Guitar Tab

Submitted: Mar 05, 2010 by TrangOul

5
Average: 5 (3 votes)
Download | Listen
Game: Lufia 2
Composer(s): Yasunori Shiono
Style: Arrangement, Fingerstyle

This song is also called Sinistral Battle

AutoScroll: Slow | Medium | Fast
'Battle #3'   
from 'Lufia II: Rise of the Sinistrals'
originally composed by Yasunori Shiono
arranged by Marcus Kasperski

Moderato | Standard Tuning

     H.           E  E     S S S S S S S S S S S S S S E     S S S S S S S S S S S S S S E   
E||---------------------|------0-2---0---0----------------|------0-2---0---0----------------|
B||---------------------|--2-4---------4-----4-2-4---2-0--|--2-4---------4-----4-2-4---2-0--|
G||---------------------|---------------------------------|---------------------------------|
D||---------------------|---------------------------------|---------------------------------|
A||---------------------|--4-----------------------L------|--4-----4---------------L--------|
E||------------------4--|------------------------------4--|------------------------------4--|


  S S S S S S S S S S S S S S E     S S S S S S S S S S S S S S S S  
------4-5---4---4----------------|------4-----4-5-4---5-7-5---7-8---|
--5-7---------7-----7-5-7---5-4--|--5-7---7-------------------------|
---------------------------------|----------------------------------|
---------------------------------|----------------------------------|
--4-----4-----4-----4-----4------|--4-4-4-4-4-4-4-4-----------------|
------------------------------4--|------------------4-5-7-5-5-7-8-8-|


   E  S E  S E  S E  S E   E      E  E  S E  S E  S S S S S S    E  E  S S S S E  S E  S S S  
--12---------------------------|--0------------0--2-4---0-----|--4---------2-0-------------L-|
-------------------------------|--2------------2----2---2-----|------------------------------|
-------------------------------|------------------------------|--2---------2-----------------|
-------------------------------|------------------------2-1---|--------------------------2---|
--------------------------11\--|--4--4----4----4----4-------2-|--0--0----0-----0----0--4---0-|
---9--9----9----9----9---------|------------------------------|------------------------------|


  E  E  S S S S E.  E.  E     E  E  S E  S E  S S S S S S    E  E  S E  S E  S S S S S S  
------------0---2----------|--5------------5--7-4---------|--0------------0--2-4---0-----|
--4-------------0---4---0--|------------------------7-----|--2------------2----2---2-----|
--4-----------------2------|------------------------------|------------------------------|
------------------------4--|--6------------6--------4-6---|------------------------2-1---|
--2--2----2-----2---0------|------------------------------|--4--4----4----4----4-------2-|
------------------------2--|--4--4----4----4----4-------4-|------------------------------|


  E  E  S S S S E  S E  S S S    E  E  S S S S E  S E  S E     E  E  S E  S E  S S S E.   
--4---------2-0-------------L-|-----------------------------|----------------------------|
------------------------------|--4---------2---1----2----4--|--4------------2------------|
--2---------2-----------------|--4-------------1----1----1--|--6------------1------------|
--------------------------2---|-----------------------------|----------------------------|
--0--0----0-----0----0--4---0-|--2--2----2-----3--3----3----|--4--4----4----4----4---2---|
------------------------------|-----------------------------|----------------------------|


  S S S S S S S S S S S S S S S S    S S S S S S S S S S S S S S S S  
--0---------------0---2-4---0-----|--4-----------2-0---------------L-|
--2---------------2-----2---2-----|----------------------------------|
----------------------------------|--2-----------2-------------------|
----------------------------2-1---|------------------------------2---|
--4-4-4-4-4-4-4-4-4-4-4-4-4-----2-|--0-0-0-0-0-0-0-0-0-0-0-0-0-4---0-|
----------------------------------|----------------------------------|


  S S S S S S S S S S S S S S S S    S S S S S S S S S S S S S S S S  
--------------0---2---------------|--5---------------5---7-4---------|
--4---------------0-----4-----0---|----------------------------7-----|
--4---------------------2---------|----------------------------------|
------------------------------4---|--6---------------6---------4-6---|
--2-2-2-2-2-2-2-2-2-2-2-0-0-0-----|----------------------------------|
------------------------------2-2-|--4-4-4-4-4-4-4-4-4-4-4-4-4-----4-|


  S S S S S S S S S S S S S S S S    S S S S S S S S S S S S S S S S  
--0---------------0---2-4---0-----|--4-----------2-0---------------L-|
--2---------------2-----2---2-----|----------------------------------|
----------------------------------|--2-----------2-------------------|
----------------------------2-1---|------------------------------2---|
--4-4-4-4-4-4-4-4-4-4-4-4-4-----2-|--0-0-0-0-0-0-0-0-0-0-0-0-0-4---0-|
----------------------------------|----------------------------------|


  S S S S S S S S S S S S S S S S    S S S S S S S S S S S S S E.   
----------------------------------|--------------------------------|
--4-----------2---1-----2-----4---|--4---------------2-------------|
--4---------------1-----1-----1---|--6---------------1-------------|
----------------------------------|--------------------------------|
--2-2-2-2-2-2-2-2-3-3-3-3-3-3-3-3-|--4-4-4-4-4-4-4-4-4-4-4-4---2---|
----------------------------------|--------------------------------|


  E  S S S S S S E  S S S S S S    E  E  S S S S E  S S S S S S    S S S S S S S S S S S S S S S S  
-------------4---2------L-2-4-5-|--7---------5---4--------------|----------------------------------|
-------2-----2---2------L-2-----|--0--------------------4-------|------------------------------0-1-|
--2----2------------------------|----------------4--------------|------------------1---1-2-1-2-----|
--2-------------------------2---|---------------------------4---|----1-2-1-2-4-2-4---4-------------|
--0--0-----0-----0----0---4---0-|-------------------------6---2-|--4-------------------------------|
--------------------------------|--7--7----7-----7----7---------|----------------------------------|


  S S S S S S S S S S S S S S S S    S S S S S S S S S S S S S S S S  
----------------------------------|--------------4---2-------L-2-4-5-|
------------------------------0-1-|--------2-----2---2---------2-----|
------------------1---1-2-1-2-----|--2-----2-------------------------|
----1-2-1-2-4-2-4---4-------------|--2---------------------------2---|
--4-------------------------------|--0-0-0-0-0-0-0-0-0-0-0-0-0-4---0-|
----------------------------------|----------------------------------|


  S S S S S S S S S S S S  S S S S    S S S S S S S S S S S S S S S S  
--7---------------8-------11-------|----------------------------------|
--0---------------0--------0-------|----------------------------------|
-----------------------------------|--------------------------------1-|
-----------------------------------|------------------1---1-2-1-2-4---|
-----------------------------------|----1-3-1-3-4-3-4---4-------------|
--7-7-7-7-7-7-7-7-7-7-7-7--7-7-7-2-|--4-------------------------------|


  S S S S S S S S S S S S S S S S    E  E  S S S S S S S S S S E     E  E  S S S E  S Q    S S S  
----------------------------------|-----0------------4---2---0----|-----0------------------------|
--------------------------------1-|--2-----4-2-0-2-------------4--|--2-----4-2-0-2---------------|
----------------------------1-3---|-------------------------------|----------------------------1-|
------------------1---1-2-4-------|-------------------------------|-----------------4-3------4---|
----1-3-1-3-4-3-4---4-------------|--0-----2-----4-----------4-2--|--0-----2-----4---------4-2---|
--4-------------------------------|-------------------------------|------------------------------|


  E  E  S S S S S S S S S S E     E  E  S S S Q.     S S S    E  E  S S S S S S S S S S E   
-----0------------4---2---0----|-----0-----------------2-4-|--0--4--2-0---0---7---5---4-2--|
--2-----4-2-0-2-------------4--|--2-----4-2-0-6------6-----|------------4------------------|
-------------------------------|---------------------------|-------------------------------|
-------------------------------|---------------------------|-------------------------------|
--0-----2-----4-----------4-2--|--0-----2-----4------4-2---|--0-----2-----4-----------4-2--|
-------------------------------|---------------------------|-------------------------------|


  E  E  S S S E  S Q    S S S    E  E  S S S S S S S S S S E     E  E  S S S H        S   
--0--4--2-0---0---------------|--0--4--2-0---0---7---5---4-2--|--0--4--2-0--------------||
------------4----2-2------2-4-|------------4------------------|------------4-2----------||
------------------------------|-------------------------------|-------------------------||
-----------------4-3----------|-------------------------------|-------------------------||
--0-----2-----4---------4-2---|--0-----2-----4-----------4-2--|--0-----2-----4----------||
------------------------------|-------------------------------|-------------------------||




Duration Legend
---------------
H - half
Q - quarter
E - 8th
S - 16th
. - note dotted

Tablature Legend
----------------
L - tied note
\ -  slide out of downwards
Login or Register to remove this ad.

5 comments on Battle #3

Epic.

5

Epic arrangement for epic game.

Holly Hammer of Thor. It gave

Holly Hammer of Thor. It gave me the chills. I haven't played the game, nor I knew the song (Which I am going to do right now). Yet I found this arrangement to be brilliant. There are some tricky note combinations; you must have some nice ears to have caught them.
Also the bass of the arrangement was made out of pure Win and Awesomeness.
I can feel the spirit of battle in this tab! Damn yeah!
I am a huge fan or your stuff. Thank you very much for sharing it with us, and I am looking forward to watching you playing this one!

Thanks alot, I really

Thanks alot, I really appreciate your comment.

Brave Toaster said

Thank you very much for sharing it with us, and I am looking forward to watching you playing this one!

I'm still practicing to play it up to the right speed ^^"

Awesome!

Sounds just like the music in the game. Awesome! :D

Me again

5

Oops. Forgot to vote. Boo-yah!