Ads

Itsumo no Kanji (Lucky Star) Guitar Tab

Submitted: Apr 19, 2011 by diralark

5
Average: 5 (9 votes)
Download | Listen
Game: Lucky Star
Composer(s): Satoru KĊsaki
Style: Arrangement, Fingerstyle

AutoScroll: Slow | Medium | Fast
                            Itsumo No Kanji   from Lucky Star

 Music by Satoru Kosaki >> Transcribed by Josh for piano >> Guitar Tab by Diralark

 OST : http://www.youtube.com/watch?v=f2oKqJ-OqCw

 Guitar, tempo : 144
                                                                            Segno
     Q    Q    Q       Q    Q    Q       Q    Q    Q       Q    Q    Q       Q    Q    Q     
E||-----------------|-----------------|-----------------|-----------------|-----------------|
B||-----------------|-----------------|-----------------|-----------------|--1--------------|
G||-------0----0----|-------0----0----|-----------------|-------0----0----|-------0----0----|
D||-------2----2----|-------0----0----|-------3----3----|-------0----0----|-------2----2----|
A||--3---------L----|--2---------L----|-------3----3----|--2---------L----|--3---------L----|
E||-----------------|-----------------|--5---------L----|-----------------|-----------------|


                                             Da Segno
  Q    Q    Q       Q    Q    Q       Q    Q    Q       E   E  Q    Q       E   E  Q    Q     
-----------------|-----------------|-----------------|--0h--1--3---------|--0h--1--3----8----|
--0--------------|-----------------|--0--------------|-------------------|-------------------|
-------0----0----|--2--------------|-------0----0----|---------0----0----|---------0----0----|
-------0----0----|-------3----3----|-------0----0----|---------2----2----|---------0----0----|
--2---------L----|--0----3----3----|--2---------L----|--3-----------L----|--2-----------L----|
-----------------|-----------------|-----------------|-------------------|-------------------|


  Q    Q    E   E     Q    E  E  E   E     E  E  Q    Q       Q    Q    Q       Q    Q    Q     
--3---------1p--0--|-------------0h--1--|--0---------------|-----------------|-----------------|
-------------------|--3-------3---------|-----1------------|-----------------|-----------------|
-------------------|-------0-----0------|--------0----0----|-------0----0----|-----------------|
-------3----3------|-------0-----0------|--------2----2----|-------0----0----|-------3----3----|
--0----3----3------|--2--------------L--|--3----------L----|--2---------L----|-------3----3----|
-------------------|--------------------|------------------|-----------------|--5---------L----|


  Q    Q    Q       E   E  Q    Q       E   E  Q    Q       Q    Q    E   E     Q    E  E  E   E   
-----------------|--0h--1--3---------|--0h--1--3----8----|--3---------1p--0--|-------------0h--1--|
-----------------|-------------------|-------------------|-------------------|--3-------3---------|
-------0----0----|---------0----0----|---------0----0----|-------------------|-------0-----0------|
-------0----0----|---------2----2----|---------0---------|-------3----3------|-------0-----0------|
--2---------L----|--3-----------L----|--2-----------L----|--0----3----3------|--2--------------L--|
-----------------|-------------------|-------------------|-------------------|--------------------|


  Q    Q    Q       Q    Q    Q       Q    Q    Q       Q    Q    Q       E  E  E   E  Q     
--0--------------|-----------------|-----------------|-----------------|--------------------|
-----------------|-----------------|-----------------|-----------------|-----0--1h--3--1----|
-------0----0----|-------0----0----|-----------------|-------0----0----|--2-----------------|
-------2----2----|-------0----0----|-------3----3----|-------0----0----|--------3------3----|
--3---------L----|--2---------L----|-------3----3----|--2---------L----|--------------------|
-----------------|-----------------|--5---------L----|-----------------|--1------------L----|


  E  E  E   E  E   E     Q    Q    Q       Q    Q    Q       E  E  E   E  Q     
---------------0h--1--|-----------------|-----------------|--------------------|
-----0--1h--3---------|--3--------------|--3--------------|-----0--1h--3--1----|
--2-------------------|-------0----0----|-------0----0----|--2-----------------|
--------3------3------|-------0----0----|-------0----0----|--------3------3----|
--0----------------L--|-----------------|--2---------L----|--------------------|
----------------------|--3---------L----|-----------------|--1------------L----|


                                                   Da Capo
  E  E  E   E  E   E     Q    Q    Q       H        E  E       Q    E  E  Q       Q    E  E  Q     
---------------0h--1--|-----------------|-----------0--1--||-------------------|------------------|
-----0--1h--3---------|--3--------------|-----------------||-------------------|------------------|
--2-------------------|-------0----0----|-----------------||*-------------0----|-------------0----|
--------3------3------|-------0----0----|--0--------------||*----------2-------|----------0-------|
--0----------------L--|-----------------|--2--------------||---3----3-----L----|--2----2----------|
----------------------|--3---------L----|--3-----------L--||--------------3----|----------L-------|


  Q    E   E  Q       Q    Q    Q         E   E  E  E  Q       E   E  E  E  Q     
-------------------|------------------||--0h--1--3----------|--0h--1--3-----8----|
-------------------|------------------||--------------------|--------------------|
-------------------|------------0----*||---------------0----|---------------0----|
--------------3----|-------0---------*||------------2-------|------------0-------|
--0----0h--3-------|--2---------L-----||--3---L--3-----L----|--2---L--2-----L----|
--------------1----|------------------||--------------------|--------------------|


  Q    E  E  E   E     Q    E  E  E   E     E  E  E  E  Q       Q    E  E  Q     
--3----------1p--0--|-------------0h--1--|--0----------------|------------------|
--------------------|--3-------3---------|-----1-------------|------------------|
--------------------|-------------0------|--------0-----0----|-------------0----|
-------------3------|----------0---------|-----------2-------|----------0-------|
--0----0--3------L--|--2----2---------L--|--3--L--3-----L----|--2----2-----L----|
--------------------|--------------------|-------------------|------------------|


  Q    E   E  Q       Q    Q    Q       E   E  E  E  Q       E   E  E  E  Q     
-------------------|-----------------|--0h--1--3----------|--0h--1--3-----8----|
-------------------|-----------------|--------------------|--------------------|
-------------------|------------0----|---------------0----|---------------0----|
--------------3----|-------0---------|------------2-------|------------0-------|
--0----0h--3-------|--2---------L----|--3---L--3-----L----|--2---L--2-----L----|
-------------------|-----------------|--------------------|--------------------|


  Q    E  E  E   E     Q    E  E  E   E     Q    E  E  Q       Q    E  E  Q       Q    E   E  Q     
--3----------1p--0--|-------------0h--1--|--0---------------|------------------|-------------------|
--------------------|--3-------3---------|------------------|------------------|-------------------|
--------------------|--------------------|-------------0----|-------------0----|-------------------|
-------------3------|----------0---------|----------2-------|----------0-------|--------------3----|
--0----0--3---------|--2----2---------L--|--3----3-----L----|--2----2-----L----|--0----0h--3-------|
--------------------|--------------------|------------------|------------------|-------------------|


  Q    Q    Q       E  E  E   E  Q       E  E  E   E  E   E     Q    Q    Q       Q    Q    Q     
-----------------|--------------------|---------------0h--1--|-----------------|-----------------|
-----------------|-----0--1h--3--1----|-----0--1h--3---------|--3--------------|--3--------------|
------------0----|--2-----------------|--2-------------------|-------0----0----|-------0----0----|
-------0---------|--------3------3----|--------3------3------|-------0----0----|-------0----0----|
--2---------L----|--------------------|--0----------------L--|-----------------|-----------------|
-----------------|--1------------L----|----------------------|--3---------L----|--3---------L----|


  E  E  E   E  Q       E  E  E   E  E   E     Q    Q    Q       H        E  E     Q    Q    Q     
--------------------|---------------0h--1--|-----------------|-----------0--1--|-----------------|
-----0--1h--3--1----|-----0--1h--3---------|--3--------------|-----------------|-----------------|
--2-----------------|--2-------------------|-------0----0----|-----------------|-------0----0----|
--------3------3----|--------3------3------|-------0----0----|-----------------|-------2----2----|
--------------------|--0----------------L--|-----------------|-----------------|--3---------L----|
--1------------L----|----------------------|--3---------L----|--3-----------L--|-----------------|


  Q    Q    Q       Q    Q    Q       Q    Q    Q       Q    Q    Q       Q    Q    Q     
-----------------|-----------------|-----------------|-----------------|-----------------|
-----------------|-----------------|-----------------|-----------------|-----------------|
-------0----0----|-----------------|-------0----0----|-------0----0----|-------0----0----|
-------0----0----|-------3----3----|-------0----0----|-------2----2----|-------0----0----|
--2---------L----|-------3----3----|--2---------L----|--3---------L----|--2---------L----|
-----------------|--5---------L----|-----------------|-----------------|-----------------|


                                      ^                               
  Q    Q    Q       Q    Q    Q       H.               H.             
-----------------|-----------------|----------------|---------------||
-----------------|-----------------|--1-------------|---------------||
-----------------|-------0----0----|----------------|---------------||
-------3----3----|-------0----0----|--2h------------|---------------||
-------3----3----|--2---------L----|--3h------------|---------------||
--5---------L----|-----------------|----------------|---------------||

Legend:
H - half
Q - quarter
E - 8th
. - note dotted
L - tied note
h - hammer on
p - pull off
^ - brush up
Login or Register to remove this ad.

4 comments on Itsumo no Kanji

Excelent conversion as

5

Excelent conversion as always, sir Diralark. Thanks for sharing!

Thanx, hopefully u are

Thanx, hopefully u are present to write kind comments :)

btw "Da Capo" is not a right place, but it fixed in the .pdf or .gp5

I ll post later another Waltz from Ghibli anime, I like its ..

Hey nice tab! now I'm feeling

Hey nice tab! now I'm feeling nostalgic heh.

:)

Thanks miss