Ads

Fun Fun Fun Dayo (Lucky Star) Guitar Tab

Submitted: Mar 30, 2021 by coobs (Last updated: Apr 09, 2021)

5
Average: 5 (3 votes)
Download | No audio :(
Game: Lucky Star
Composer(s): Satoru Kōsaki
Style: Arrangement, Artificial harmonics, Fingerstyle, Natural harmonics

This song is also called らららコッペパン

AutoScroll: Slow | Medium | Fast
Been procrastinating on recording this one but have had the tab done for months now. 

The bass notes are for the most part all staccato,
listen to the original if you want to play it like the original. 

standard tuning 
capo 1
bpm = 128

     Q    Q    Q    Q       Q    Q    Q    Q       Q    Q    Q    Q       Q    Q    E  E  E  E
E||----------------------|----------------------|----------------------|------------------------||
B||----------------------|----------------------|----------------------|---------------0--2--3--||
G||----------------------|----------------------|----------------------|------------------------||
D||----------------------|----------------------|----------------------|------------------------||
A||-------2---------2----|-------2---------2----|-------2---------2----|-------2----------------||
E||--0---------0---------|--0---------0---------|--0---------0---------|--0---------0-----------||

									       1st & 3rd Endings-------|
  Q    E  E  E  E  E  E     Q    E  E  E  E  E  E     E  E  E  E  E  E  E  E     E  E  Q    E  E  E  E
-------4-----------------|-------4-----------------|--------------4--7-----6--|--5----------------------||
--4-------4-----0--2--3--|--4-------4-----0--2--4--|--5-----2--5--------------|-----5----------0--2--3--||
*------------------------|-------------------------|-----2--------------------|------------------------*||
*------------------------|-------------------------|--------------------------|------------------------*||
-------2-----------2-----|-------2-----------2-----|--------4-----------4-----|--------4----------------||
--0----------0-----------|--0----------0-----------|--2-----------2-----------|--2----------2-----------||

2nd Ending ------------>
  E  E  Q    Q    Q       E  E  E  Q    Q    E     E  E  E  Q    Q    E     E  E  E  Q    Q    E
--5--------------------|--7--7--7--7----12------|--7--7--7--7----12------|--7--7--7--7----7----7--|
-----5-----------------|--7--7--7--7---------9--|--6--6--6--6---------9--|--5--5--5--5---------5--|
-----------------------|------------------------|------------------------|----------------6-------|
-----------------------|--6--6--6--6------------|--5--5--5--5------------|--4--4--4--4----4----4--|
--------4---------4----|------------------------|------------------------|------------------------|
--2----------2---------|------------------------|------------------------|------------------------|

		       4th Ending------------->
  Q    Q    E  E  E      E  E  Q    Q    Q       E  E  E  E  Q    E  E     E  E  E  E  Q    E  E 
--7------------------||--5--------------------|-----7--7--7--7----9--7--|-----7--7--7--7----9--7--|
--4---------0--2--3--||-----5-----------------|-------------------------|-------------------------|
--4-----------------*||-----------------------|-------------------------|-------------------------|
--------------------*||-----------------------|--------4----------------|--------3----------------|
-------2-------------||--------4---------4----|-------------------9-----|-------------------8-----|
---------------------||--2----------2---------|--4-----------4----------|--3-----------3----------|


  E  E  E  E  E  E  E  E     Q    E  E  Q    Q       E  E  E  E  Q    E  E      E  E  E  E  Q    E  E
-----5--5--5--5--4--5--6--|--7-------2------------|-----7--7--7--7----12-----|-----7--7--7--7----12-----|
--------------------------|-----------------------|----------------------12--|----------------------12--|
--------------------------|-----------------------|--------------------------|--------------------------|
--------2-----------2-----|-------4----------4----|--------4-----------------|--------3-----------------|
--------------------------|-------------2---------|-------------------9------|-------------------8------|
--2-----------2-----------|--7--------------------|--4-----------4-----------|--3-----------3-----------|


  E  E  E  E  E  E  E  E      E  E  E  Q    E  E  E      Q    E  Q    E  E  E  E     Q    E  E  E  E  E  E 
-----5--5--5--5--7--9--12--|--11------<7>------------||-------4-------------------|-------4-----------------|
---------------------------|----------------0--2--3--||--4-------4-------0--2--3--|--4-------4-----0--2--4--|
---------------------------|-------------------------||*--------------------------|-------------------------|
--------2------------------|-------------------------||*--------------------------|-------------------------|
--------------------7------|-------------------------||-------2-------------0-----|-------2-----------2-----|
--2-----------2------------|--7--7--7--7-------------||--0------------0-----------|--0----------0-----------|

		           1st Ending---------------| 2nd Ending------------>
  E  E  E  E  E  E  E  E     E  E  Q    E  E  E  E      E  E  Q    Q    Q       E  E  E  Q    E  E
--------------4--7-----6--|--5----------------------||--5--------------------|--7--7--7--7----12----|
--5-----2--5--------------|-----5----------0--2--3--||-----5-----------------|--7--7--7--7-------9--|
-----2--------------------|------------------------*||-----------------------|----------------------|
--------------------------|------------------------*||-----------------------|--6--6--6--6----------|
--------------------4-----|--------4----------------||--------4---------4----|----------------------|
--2-----------------------|--2----------2-----------||--2----------2---------|----------------------|



  E  E  E  Q    E  E     E  E  E  Q    Q    E     Q.      S S E  E  E  E     E  E  E  Q    E  E
--7--7--7--7----12----|--7--7--7--7----7----7--|--7-----------------------|--7--7--7--7----12----|
--6--6--6--6-------9--|--5--5--5--5---------5--|--4-----0g2h3h4--3--2--0--|--7--7--7--7-------9--|
----------------------|----------------6-------|--4-----------------------|----------------------|
--5--5--5--5----------|--4--4--4--4----4----4--|--------------------------|--6--6--6--6----------|
----------------------|------------------------|--------------------------|----------------------|
----------------------|------------------------|--------------------------|----------------------|

 
  E  E  E  Q    E  E     E  E  E  Q    Q    E     H        H           E  E  E  H        E
--7--7--7--7----12----|--7--7--7--7----7----7--|--7-----------------|--0--0--0--0-----------|
--6--6--6--6-------9--|--5--5--5--5---------5--|--4-----------------|-----------------------|
----------------------|----------------6-------|--4-----------------|--1--1--1--1-----------|
--5--5--5--5----------|--4--4--4--4----4----4--|--------------------|-----------------------|
----------------------|------------------------|-----------2--------|-----------------------|
----------------------|------------------------|--------------------|--0--0--0--0-----------|


  E  Q    E  H           W    
-----1----1--0--------|--12----------------|
----------------------|--------------------|
-----2----2--1--------|--9-----------------|
----------------------|--------------------|
----------------------|--------------------|
-----1----1--0--------|--------------------|
Login or Register to remove this ad.

3 comments on Fun Fun Fun Dayo

fix on measure 23

fix on measure 23 it should be
||-------4-------------------|
||--4-------4-------0--2--3--|
||*--------------------------|
||*--------------------------|
||-------2-------------2-----|
||--0------------0-----------|

as well as measure 25 it should be

--------------4--7----6--|
--5-----2--5-------------|
-----2-------------------|
-------------------------|
--------4-----------4----|
--2-----------2----------|
yeesh so many other mistakes ill try fixing them when i get home if i remember.

5 stars!

5

This is delightful! Excellent job.

This is awesome!

5

This is awesome!