Kiss ~ Kaerimichi no Love Song (Lovely Complex) Guitar Tab

Submitted: May 18, 2015 by Basisti94

5
Average: 5 (4 votes)
Download | Listen
Game: Lovely Complex
Composer(s): Hironosuke Sato
Style: Arrangement, Fingerstyle

This song is also called Ending Theme

AutoScroll: Slow | Medium | Fast
    	 	Kiss - Kaerimichi no Love Song
                                
Lovely Complex
Tegomass
Guitar Arrangement by Basisti94 (Miro Laaksonen)
13.5.2015



Capo 4
Tempo ~ 130

     E  E  E  E  E  E  E  E     E  E  E  E  E  E  E  E   
E||--------------------------|--------------------------|
B||-----------------------0--|-----------------------0--|
G||-----------0--2--0--2-----|--2--0--0--------2--2-----|
D||-----0--0-----------------|--------------0-----------|
A||--------------------------|-----------2--------------|
E||--3-----------2-----------|--0-----------------------|


  E  E  E  E  E  Q    E     E  E  E  E  Q    Q       E  E  E  E  E  E  E  E   
-------------------------|------------------------|--------------------------|
-------------------------|--1-----0---------------|-----------------------0--|
--2--0--0--------0----0--|-----2-----0--0----2----|-----------0--2--0--2-----|
--------------0----------|--0-----------0----4----|-----0--0-----0-----------|
--3--------3-------------|------------------------|--------------------------|
-------------------------|------------------------|--0-----------------------|


  E  E  E  E  E  E  E  E     E  E  E  E  E  Q    E     Q    E  E  Q    Q     
--------------------------|-------------------------|-----------------------|
-----------------------0--|-------------------------|--1----0---------------|
--2--0--0--------2--2-----|--2--0--0--------0----0--|----------0--0----2----|
-----------0--------------|-----------0-------------|--0----------1---------|
--3-----------2-----------|--0-----------3----------|-----------------------|
--------------------------|-------------------------|-----------------------|


  E  E  E  E  E  E  E  E     E  E  E  E  E  E  E  E     E  E  E  Q    Q    E   
--------------------------|--------------------------|------------------------|
-----------------------0--|-----------------------0--|------------------------|
-----------0--2--0--2-----|--2--0--0--------2--2-----|--2--0--0-------0-------|
-----0--0-----------------|--------------0-----------|-----------2------------|
--------------------------|-----------2--------------|--3--------3---------3--|
--3-----------2-----------|--0-----------------------|------------------------|


  E  E  Q    Q    Q       E  E  E  E  E  E  E  E     E  E  E  E  E  E  E  E   
-----------------------|--------------------------|--------------------------|
--1-----0--------------|--------------------3--1--|--0--------------------0--|
-----2-------0----2----|-----------0--2--0--------|-----2--0--------2--2-----|
--0---------------1----|-----0--0--------0--------|-----------0-----------0--|
-----------------------|--2--2--2-----------------|--3-----------2-----------|
-----------------------|--0--0--0-----------------|--------------------------|


  E  E  E  Q    E  E  E     Q    E  E  Q    Q       E  E  E  Q    E  E  E   
-------------------------|-----------------------|----------------0--------|
-------------------------|--1----0---------------|--0--------0-------------|
--2--0--0-------------0--|----------0--0----2----|--------0----------------|
-------------------------|--0---------------1----|-----2----------------2--|
--0--------3----2--------|-----------------------|-------------------2-----|
-------------------3-----|-----------------------|--0----------------------|


  S S Q    Q    E  E  E     E.  E.  E  E.  S E  E     Q.     E  Q.     E   
-------------------------|-------------------------|--0-------------------|
--0---0------------------|--0-------------------0--|---------0------------|
----3--------------------|------2---0--0---2-------|--0---------0---------|
--1-------------1-----1--|--0-------------------0--|----------------------|
-----------2-------2-----|-------------------2-----|--4----------------2--|
-------------------------|-------------------------|----------------------|


  E.  E.  E  E.  E.  E     E.  S E  E  E.  E.  E     E.  S E  E  E.  E.  E   
------------------------|-------------------------|-------------------------|
------------------------|-------------------------|------------------1---3--|
----------0--0-------0--|------0----2--2-------0--|--0---2----3--3----------|
--2---4-----------------|--4-----4-------------0--|--------2----------------|
--0----------0---2---3--|--2-----------2---3------|--3----------------------|
------------------------|-------------------------|----------------------3--|


  ^                                                                             
  H        E  E  E  E     E  S E  S E  E  E  E  E     E  S S E  E  E.  S E  E   
-----------------------|---------------------------|---------------------------|
--3-----------------1--|--3----3----3-----------3--|--0----1----3--3---1----0--|
--2--------L-----2-----|--2----2----2--------2-----|---------0--0-----------0--|
--0--------L--0--------|--0----0----2-----0--------|-----0---------0-----0-----|
-----------------------|---------------------------|---------------------------|
-----------------------|---------------------------|--3------------------------|


  E  S S E  E  E.  S E  E     E  S E  S E  E  S E.  E     Q    Q    E  E  Q     
---------------------------|---------------------------|-------0---------------|
-------0----1--1---0-------|------------0--0-----------|------------3--0--0----|
--2---------2--2--------2--|--0----2------------2---0--|-----------------------|
---------0-----------------|----------0-------------1--|--3--------------------|
-----0---------------------|-----2---------------------|--5---------4----------|
--2------------------2-----|--0---------------0--------|-----------------------|


  E  S E.  E  E.  E.  E     E.  S E  E  Q    Q       E  S S E  E  E  E  E  E   
-------------------------|------------------------|---------------------------|
-------------------------|------------------------|--1----0-------------------|
--2----0------0----------|------2-------0---------|------------0--------0--2--|
-----2-----4----------0--|--0-----0--4--2----0----|-----2---2--------2--------|
--3-----------3----------|--2---------------------|--0------------2-----------|
------------------3------|------------------------|------------------0--------|


  Q.     S  S H           E  S S E  E  E.  S E  E     E  S S E  E  E.  S E  E   
-----------------------|---------------------------|---------------------------|
--0------1p-0----------|--0----1----3--3---1----0--|-------0----1--1---0-------|
--------------2--------|---------0--0-----------0--|--2---------2--2--------2--|
--------------0--------|-----0---------0-----0-----|---------0-----------------|
--3--------------------|---------------------------|-----0---------------------|
-----------------------|--3------------------------|--2------------------2-----|


  E  S E  S E  E  S E.  E     Q    E  E  E  E  E  E   
---------------------------|-------0-----------------|
------------0--0-----------|----------3--3--0--0-----|
--0----2------------2---0--|----------------------2--|
----------0-------------1--|--4----------------------|
-----2---------------------|--5----------4-----------|
--0---------------0--------|-------------------------|


  E  S E.  E  E  E  E  E     E.  S E  E  E  E  E  E   
--------------------------|--------------------------|
--------------------------|--------------------------|
--2----0------0-----------|------2-------0-----------|
-----2-----4-----------0--|--0-----0--4--0-----------|
--3--------------3--2-----|--2--------------3--2-----|
--------------0--------3--|--------------0--------2--|


                                      |--3--|              
  E  S S E  Q    E  E  S S    E.  E.  S  S  S E  E  E  E   
---------------------------|------------------------------|
--1----0-----------------0-|--1-------0h-1p-0-------------|
------------0-------0--2---|--0---------------0-----0--2--|
-----2---2-------2---------|--2------------------2--------|
--0------------------------|--0---0---0----------------0--|
-----------------------0---|------------------------------|


  E  S E.  E  H           Q    Q    Q    Q       Q    E  S  S H         
-----------------------|----------------------|------------------------|
--1----0---------------|-------0---------1----|--1-------3p-1-0--------|
-----------0-----------|--2---------2---------|--0---------------------|
-----1-----------------|--2-------------------|-------0----------------|
--3--------------------|--5-------------------|------------------------|
--------------3--------|----------------------|--3------------2--------|


  H        Q    Q       Q.     Q    Q    E     H        Q    E  S  S  
---------------------|----------------------|------------------------|
-----------1----0----|----------------------|-------------------3h-4-|
--0--------2----2----|--0-------------------|--0---------------------|
--2--------3----3----|--0-----------0-------|--2--------4----0-------|
---------------------|--3------3---------3--|--5--------6------------|
--0--------3---------|----------------------|------------------------|


  E  E  E  E  E  E  E  E     E  E  E  E  E  E  E  E   
--0-----------------------|--3-----------------------|
-----------0--3--------3--|-----------3-----1--0--1--|
--------0-----------2-----|--------0-----------------|
-----0-----------4--------|-----2--------------------|
--------------5-----------|--3-----------2-----------|
--0-----------------------|--------------------------|


  E  E  E  Q    Q    S  S    Q.     S S H           E  E  E  E  E  E  E  E   
--------------------------|----------------------|--------------------------|
-----------3----1---------|----------------------|-----------------------0--|
--2-----0-----------------|--0------0---2--------|-----------0--2--0--2-----|
-----2---------------2h-4-|--2--------2-4--------|-----0--0-----------------|
--0-----------------------|--5-------------------|--------------------------|
--------------------------|----------------------|--3-----------2-----------|


  E  E  E  E  E  E  E  E     E  E  E  Q    Q    E     E  E  E  E  Q    Q     
--------------------------|------------------------|------------------------|
-----------------------0--|------------------------|--0-----0---------------|
--2--0--0--------2--2-----|--2--0--0-------0----0--|-----0-----0--0----2----|
--------------0-----------|-----------2------------|--0----------------1----|
-----------2--------------|--3------------------3--|------------------------|
--0-----------------------|------------------------|------------------------|


  E  E  E  E  E  E  E  E     E  E  E  E  E  E  E  E     E  E  E  Q    E  E  E   
--------------------------|--------------------------|-------------------------|
-----------------------0--|-----------------------0--|----------------------1--|
-----------0--2--0--2-----|--2--0--0--------2--2-----|--2--0--0----------0-----|
-----0--0-----0-----------|-----------2--------------|-----------4----0-----0--|
--------------------------|--3-----------2-----------|--0----------------------|
--0-----------------------|--------------------------|-------------------------|


  Q    E  E  Q    Q       E  E  E  Q    E  E  E     S S Q    Q    E  E  E   
-----------------------|----------------0--------|-------------------------|
--1----0---------------|--0--------0-------------|--0---0------------------|
--0-------0--0----2----|--------0----------------|----3--------------------|
--0---------------1----|-----2----------------2--|--1-------------1-----1--|
-----------------------|-------------------2-----|-----------2-------2-----|
-----------------------|--0----------------------|-------------------------|


  E.  E.  E  E  S E.  E     Q.     E  Q.     E     E.  E.  E  E.  E.  E   
-------------------------|--0-------------------|------------------------|
--0-------------------0--|---------0------------|------------------------|
------2---0--0----2------|--0---------0---------|----------0--0-------0--|
--0-------------------0--|----------------------|--2---4-----------------|
----------------0--------|--4----------------2--|--0----------3---2---0--|
-------------------------|----------------------|------------------------|


                                                      ^                     
  E.  S E  E  E.  E.  E     E.  S E  E  E.  E.  E     H        E  E  E  E   
-------------------------|-------------------------|-----------------------|
-------------------------|------------------1---3--|--3-----------------1--|
------0----2--2-------2--|--0---2----3--3----------|--2--------L-----2-----|
--4-----4----------------|--------2----------------|--0--------L--0--------|
--2-----------2---0------|--3----------------------|-----------------------|
----------------------3--|----------------------3--|-----------------------|


  Q    Q    E  E  E  E     E  S S E  E  E.  S E  E   
------------------------|---------------------------|
--3------------------3--|--0----1----3--3---1----0--|
--2---------------2-----|---------0--0-----------0--|
--0------------0--------|-----0---------0-----0-----|
------------0-----------|---------------------------|
------------------------|--3------------------------|


  E  S S E  E  E.  S E  E     E  S E  S E  E  S E.  E     Q    Q    E  E  Q     
---------------------------|---------------------------|-------0---------------|
-------0----1--1---0-------|------------0--0-----------|------------3--0--0----|
--2---------2--2--------2--|--0----2------------2---0--|-----------------------|
---------0-----------------|----------0-------------1--|--3--------------------|
-----0---------------------|-----2---------------------|--5---------4----------|
--2------------------2-----|--0---------------0--------|-----------------------|


  E  S E.  E  E  E  E  E     E.  S E  E  Q    Q       E  S S E  E  E  E  E  E   
--------------------------|------------------------|---------------------------|
--------------------------|------------------------|--1----0-------------------|
--2----0------0-----------|------2-------0---------|------------0--------0--2--|
-----2-----4-----------0--|--0-----0--4--2----0----|-----2---2--------2--------|
--3--------------3--2-----|--2---------------------|--0------------2-----------|
-----------------------3--|------------------------|------------------0--------|


  Q.     S  S H           E  S S E  E  E.  S E  E     E  S S E  E  E.  S E  E   
-----------------------|---------------------------|---------------------------|
--0------1p-0----------|--0----1----3--3---1----0--|-------0----1--1---0-------|
--------------2--------|---------0--0-----------0--|--2---------2--2--------2--|
--------------0--------|-----0---------0-----0-----|---------0-----------------|
--3--------------------|---------------------------|-----0---------------------|
-----------------------|--3------------------------|--2------------------2-----|


  E  S E  S E  E  S E.  E     Q    Q    Q    E  E     E  S E.  E  E  E  E  E   
---------------------------|-------0---------------|--------------------------|
------------0--0-----------|------------3----0-----|--------------------------|
--0----2------------2---0--|--------------------2--|--2----0------0-----------|
----------0-------------1--|--4--------------------|-----2-----4-----------0--|
-----2---------------------|--5---------4----------|--3--------------3--2-----|
--0---------------0--------|-----------------------|--------------0--------3--|


  E.  S E  E  E  E  E  E     E  S S E  Q    E  E  S S  
--------------------------|---------------------------|
--------------------------|--1----0-----------------0-|
------2-------0-----------|------------0-------0--2---|
--0-----0--4--0-----------|-----2---2-------2---------|
--2--------------3--2-----|--0------------------------|
--------------0--------2--|-----------------------0---|


          |--3--|                                                               
  E.  E.  S  S  S E  E  E  E     E  S E.  Q    E  E  E     Q    Q    Q    Q     
------------------------------|-------------------------|----------------------|
--1-------0h-1p-0----1--1--1--|--4----3---1----------1--|--3-------------------|
--0---------------0-----0--2--|-------------------------|--2----0---------2----|
--2------------------2--------|-----1----------1--2-----|--0---------4---------|
--0---0---0----------------0--|--3----------------------|----------------------|
------------------------------|-------------------------|----------------------|


  E  S E  S S  S  Q    Q       E  E  E  E  E  E  E  E   
----------------------------|--------------------------|
----------------------------|--3--------------1--3--3--|
--2---------4p-2p-0---------|--0-----0-----3-----------|
--0----0----0---------------|-----0-----3--------------|
----------------------------|--------------------------|
--3----3----3----------1----|--------------------------|


  E  Q    E  E  Q    E     E  E  E  E  E  E  E  E     Q    E  E  E  Q    E   
------------------------|--------------------------|------------------------|
--L--1------------------|--1--------1--1--1--3-----|------------------------|
----------3-----2----3--|--------0--------------3--|--L---------------------|
--0---------------------|-----0--------------------|-------2--3--2----------|
------------------------|--------------------------|--3-------------3----3--|
-------------2----------|--3--------------3--------|------------------------|


  Q.     E  Q    E  E     E  Q    Q    E  E  E     Q    E  S S H         
-----------------------|------------------------|-----------------------|
--------------------1--|--L---------------------|-----------------------|
--3---------2----3-----|-----3----2----0--0-----|--0-------2-0----------|
--------------------0--|---------------------3--|-------1------3--------|
--3------3-------------|------------------------|--1-----------1--------|
-----------------------|--1-------1----------1--|-----------------------|


  E.  S E  Q.     Q       Q    E  E  E  E  E  E     E  Q    E  E  E  E  E   
-----------------------|-------------------------|-------------------------|
-----------------------|--3-------------1--3--3--|-----1-------------------|
-----------0------2----|----------0--3-----------|----------3-----3--2--3--|
--4-----4---------0----|--1----1-----------------|--0-------------------0--|
--5---5----5-----------|-------------------------|-------------------------|
-----------------------|-------------------------|-------------2-----------|


  E  E  E  E  E  E  E  E     E  E  E  E  E  Q    E     E.  E.  E  E.  E.  E   
--------------------1-----|-------------------------|------------------------|
--1--------1--1--1--------|-------------------------|------------------------|
--------0--------------2--|--3----------------------|--0---2---3------2---3--|
-----0--------------------|--------0----------------|-------------3----------|
--------------------------|-----3-----3--3-------3--|--3----------5----------|
--3--------3--3-----------|--0--------------3-------|------------------------|


  E.  E.  E  Q    E  E     E  E  E  E  E  E  E  E     E  Q    Q    E  E  E   
------------------------|--------------------------|------------------------|
-------------3----4--3--|--L--4--1-----------------|------------------------|
--0---2---3-------------|--------------------0-----|------------------------|
--1----------2----------|--3--------3-----3-----3--|--3--1------------------|
------------------------|--------------3-----------|----------1-------3-----|
------------------------|--------------------------|---------------1-----1--|


  W                   W                   E  S S E  E  E.  E.  E   
-------------------|-------------------|--------------------------|
--1----------------|--3----------------|--0----1----3--3---1---0--|
--2----------------|--2----------------|---------0--0-------------|
--0----------------|--0----------------|-----0--------------------|
-------------------|-------------------|--------------------------|
-------------------|-------------------|--3-----------------------|


  E.  E.  E  E.  E.  E     E.  E.  E  E  S E.  E     Q    Q    E  E  Q     
------------------------|-------------------------|-------0---------------|
------0---1--1---0------|----------0--0-----------|------------3--0--0----|
--2------------------2--|--0---2-----------2---0--|-----------------------|
------------------------|--0-------------------1--|--3--------------------|
-------------2----------|-------------------------|--5---------4----------|
--2---------------------|----------------0--------|-----------------------|


  E  S E.  E  E  E  E  E     E.  S E  E  Q    Q       E  S S E  E  E  E  E  E   
--------------------------|------------------------|---------------------------|
--------------------------|------------------------|--1----0-------------------|
--2----0------0-----------|------2-------0---------|------------0--------0--2--|
-----2-----4-----------0--|--0-----0--4--0----4----|-----2---2--------2--------|
--3--------------3--------|--2----------------5----|--0------------2-----------|
--------------------3-----|--------------0---------|------------------0--------|


  Q.     S  S H           E  S S E  E  E.  S E  E     E  S S E  E  E.  S E  E   
-----------------------|---------------------------|---------------------------|
--0------1p-0----------|--0----1----3--3---1----0--|-------0----1--1---0-------|
--0-----------2--------|---------0--0-----------0--|--2---------2--2--------2--|
--------------0--------|-----0---------0-----0-----|---------0-----------------|
--3--------------------|---------------------------|-----0---------------------|
-----------------------|--3------------------------|--2------------------2-----|


  E  S E  S E  E  S E.  E     Q    E  E  E  E  E  E   
---------------------------|-------0-----------------|
------------0--0----1---3--|--3-------3--3--0--0-----|
--0----2----------------0--|--2-------------------2--|
----------0-------------1--|--0----------------------|
-----2---------------------|-------------4-----------|
--0---------------0--------|-------------------------|


  E  S E.  E  E  E  E  E     E.  S E  E  E  E  E  E   
--------------------------|--------------------------|
--------------------------|--------------------------|
--2----0------0-----------|------2-------0-----------|
-----2-----4-----------0--|--0-----0--4--0-----------|
--3--------------3--2-----|--2--------------3--2-----|
--------------0--------3--|--------------0--------2--|


                                        |--3--|              
  E  S S E  Q    E  E  S S    E  S E  S S  S  S E  E  E  E   
---------------------------|--------------------------------|
--1----0----1------------0-|--1---------0h-1p-0----1--1--1--|
---------0----------0--2---|--0-----------------0-----0--2--|
-----2-----------2-----2---|--2--------------------2--------|
--0------------------------|--0----0----0----------------0--|
---------------------------|--------------------------------|


  E  S E.  E  Q.     E     Q    Q    Q    Q       Q.     S  S H         
------------------------|----------------------|-----------------------|
--4----3---1------------|-------0---------1----|--1------3p-1-0--------|
--------------0---------|--2---------2---------|--0--------------------|
-----1------------------|--2-------------------|--0-----------0--------|
--3------------------3--|--5-------------------|-----------------------|
------------------------|----------------------|--3-----------2--------|


  H        E  E  E  E     H        E  Q.        H        H         
-----------------------|---------------------|--------------------|
--L--------1--0-----0--|---------------------|--------------------|
--0--------2-----2-----|--0------------------|--------------------|
--0--------0-----------|--0--------L---------|--2--------4--------|
-----------------------|--3-----------3------|--3--------3--------|
--0--------------------|---------------------|--3--------5--------|


  E  E  E  S S E  E  E  E     E  E  E  E  E  E  E  E   
---------------------------|--------------------------|
------------------------3--|--3--------3-----0-----0--|
--2--------0---0-----2-----|--------0-----------2-----|
--------0----2----2--------|-----2--------------------|
-----2---------5-----------|--3-----------2-----------|
--0------------------------|--------------------------|


                            ^        ^           ^                 
  E  E  E  E  E  E  Q       H        H           W                 
-------------------------|--3--------5--------|--7----------------|
-----------3--1----------|--4--------7--------|--0----------------|
--0-----0--------0-------|--5--------5--------|--0----------------|
-----2--------------2----|--0-----------------|--0----------------|
--0----------------------|--------------------|-------------------|
-------------------------|--------------------|--3----------------|


  W                  
--L----------------||
--L----------------||
--L----------------||
--L----------------||
-------------------||
--L----------------||




Duration Legend
---------------
W - whole
H - half
Q - quarter
E - 8th
S - 16th
T - 32nd
X - 64th
. - note dotted
|-n-|  - n-tuplets


Tablature Legend
----------------
L - tied note
x - dead note
g - grace note
(n) - ghost note
> - accentuded note
NH - natural harmonic
AH - artificial harmonic
TH - tapped harmonic
SH - semi harmonic
PH - pitch harmonic
h - hammer on
p - pull off
b - bend
S - shift slide
s - legato slide
/ -  slide into from below or out of upwards
\ -  slide into from above or out of downwards
~ - vibrato
W - wide vibrato
tr - trill
TP - tremolo picking
T - tapping
S - slap
P - pop
< - fade in
^ - brush up
v - brush down
Login or Register to remove this ad.

2 comments on Kiss ~ Kaerimichi no Love Song

That was just awesome,

5

That was just awesome, favorited!

Very good.

Nice work on this piece.