Dry Tears (Lovely Complex) Guitar Tab

Submitted: Jan 05, 2015 by Spellbound66623

5
Average: 5 (1 vote)
Download | Listen
Game: Lovely Complex
Composer(s): Hironosuke Sato
Style: Transcription

AutoScroll: Slow | Medium | Fast
Dry Tears
Lovely Complex
Composed by Hironosuke Sato
Tabbed By:SpellBound66623
12/31/14

(0:35)
e-----------------------------
B-13---12--10--8--------------
G-------------------9-7-5-7-9-
D-----------------------------
A-----------------------------
E-----------------------------

e-------------------------------
B-13---12-10-8------------------
G-------------------9-7----12-9-
D-------------------------------
A-------------------------------
E-------------------------------

e--------------------------------
B-10-12-13---12-10-8-------------
G----------------------9-7-5-7-9-
D--------------------------------
A--------------------------------
E--------------------------------

e---------------------------
B---10---13-12--------12-10-
G-9------------12--9--------
D---------------------------
A---------------------------
E---------------------------

e--------------------------
B-13---12-10-8-------------
G----------------9-7-5-7-9-
D--------------------------
A--------------------------
E--------------------------

e-------------------------
B-13-12-10-8--------------
G--------------9-7---12-9-
D-------------------------
A-------------------------
E-------------------------

e--------------------------------
B-10-12-13---12-10-8-------------
G----------------------9-7-5-7-9-
D--------------------------------
A--------------------------------
E--------------------------------

e---------------------------
B---10---13-12--------12-10-
G-9------------12--9--------
D---------------------------
A---------------------------
E---------------------------

e--------------------------
B-13---12-10-8-------------
G----------------9-7-5-7-9-
D--------------------------
A--------------------------
E--------------------------

e-------------------------------
B-13---12-10-8------------------
G-------------------9-7----12-9-
D-------------------------------
A-------------------------------
E-------------------------------

e--------------------------------
B-10-12-13---12-10-8-------------
G----------------------9-7-5-7-9-
D--------------------------------
A--------------------------------
E--------------------------------

e---------------------------
B---10---13-12--------12-10-
G-9------------12--9--------
D---------------------------
A---------------------------
E---------------------------

e----------------------------
B-9S13---12-10-8-------------
G------------------9-7-5-7-9-
D----------------------------
A----------------------------
E----------------------------

e-------------------------------
B-13---12-10-8------------------
G-------------------9-7----12-9-
D-------------------------------
A-------------------------------
E-------------------------------

e--------------------------------
B-10-12-13---12-10-8-------------
G----------------------9-7-5-7-9-
D--------------------------------
A--------------------------------
E--------------------------------

e----------------------------
B---10---13-12--------12-10I-
G-9------------12--9---------
D----------------------------
A----------------------------
E----------------------------

I(Let Ring)
S(Slide)



Login or Register to remove this ad.