Login or Register to remove this ad.

Deep Past (Lovely Complex) Guitar Tab

Submitted: Nov 28, 2017 by Ttegdap

5
Average: 5 (2 votes)
Download | Listen
Game: Lovely Complex
Composer(s): Hironosuke Sato
Style: Arrangement, Fingerstyle

AutoScroll: Slow | Medium | Fast
                                        Deep Past                                         

Let Ring Throughout, Refer to PDF for fingering help.

Based on a Transcription found here:  http://sperion.web.fc2.com/main.html (Ctrl+F and type Deep Past)

Capo 1 for Original Key.

     H.           E  S S    E  E  Q    H           Q.     S S    E  E  Q    H         
E||----------------------|--0-----4----2--------|--L----------|--------4----0--------|
B||------------------2-4-|--2----------0--------|--L------4-5-|--7----------2--------|
G||----------------------|--------2-------------|-------------|--4----------3--------|
D||----------------------|-----2----------------|-------------|--------4-------------|
A||----------------------|--0----------2--------|--L----------|-----6----------------|
E||----------------------|----------------------|-------------|--4----------3--------|


  Q.     E     Q    E  E  Q    Q       Q    E  Q.     E  S S    E  E  Q    Q    E  S S  
--L---------|-----------------------|------------------------|--0-----4----2-----------|
--L------4--|--2-------2------------|--------------------2-4-|--2----------4-------4-5-|
--L---------|--2----4---------------|--1----2--4-------------|--------2---------4------|
------------|--2----------2----4----|----------4------6------|-----2-------------------|
------------|-------------3----6----|--2----4--5-------------|--0----------2-----------|
--L---------|--2----------5----5----|--0----2--4-------------|-------------------------|


  E  Q    Q.     E  E     E  S S E  E  E  E  Q       E  E  E  E  Q    E  S S  
-----7----0------------|--0----0----0--------2----|--0-----------------------|
--7-------2---------4--|--2--2---------4--5-------|--0-------------------2-4-|
--4-------3------------|--2------------2----------|--2--------2--1-----------|
-----6-----------------|--------------------------|--------4----------2------|
-----------------------|---------------2-----2----|-----2--------2-----------|
--4-------3------3-----|--2------2----------------|--0-----------0-----------|


  E  E  Q    Q    E  S S    E  E  Q    Q    E  E     E  E  E  E  Q    Q     
--0-----4----2-----------|--------4----0----------|------------------------|
--------2----0-------4-5-|--7----------2-------4--|--2--------2------------|
--2----------------------|--------4----3----------|--2-----4---------------|
-----2-------------------|------------------------|--2-----2-----2----4----|
--0----------2----0------|-----6------------------|-----4--------4----6----|
-------------------------|--4----------3----3-----|--2-----------5----5----|


  Q    E  H        S S    E  E  Q    Q    E  S S    E  Q    Q.     E  E   
-----------------------|--0-----4----2-----------|-----7----0------------|
-------------------2-4-|--2----------4-------4-5-|--7-------2---------4--|
--1----2--4------------|--------2----4-----------|-----4----3------------|
----------4------------|-----2-------------------|--4--------------------|
--2----4--5------------|--0----------2----0------|-----------------------|
--0----2--4------------|-------------------------|--4-------3------3-----|


  E  S S E  E  E  E  Q       E  E  E  E  Q    S S S S     E   E   S E  S E.  S E  S S  
--0----0----0--------2----|--0----------------------9-|--11--12-----9-----------------|
--2--2---------4--5-------|--0--------------------9---|----------12----9-------7--5-7-|
--2------------2----------|--2--------2--1------------|-------------------------------|
--------------------------|--------2------------------|------11----------7---7-7------|
---------------2-----2----|-----2--------2------7-----|---0---------------------------|
--2------2----------------|--0-----------0------------|-------------------------------|


                                               |--3--|                              
  Q.     S S S S Q    S S    E  S S E  E  Q    E  E  E     E  E  E  E  Q    E  S S  
-----------7--------------|-----------------------------|--------------------------|
-------------7-4------2-4-|--5--2-5----5--4----4--2--4--|--2-------------------2-4-|
---------4-------4--------|--2-----------------2--------|--2--------2--1-----------|
--4-----------------------|---------2-----4-------------|--------4----------2------|
--6-----------------------|-----4---------2----2--------|-----2--------2-----------|
--4-----------------------|--2--------------------------|--0-----------0-----------|


  E  E  Q    Q.     S S    E  E  E  E  Q.     E     E  S S E  E  E  E  Q     
--0-----4----2----------|-----7-----0--L---------|--0----0-L--0-----0--2----|
--2----------4------4-5-|--7--4-----2--L------4--|--2--2---------4----------|
--------2----4----------|-----------3--L---------|--2------------5----------|
-----2------------------|--4---------------------|--------------------------|
--0----------2----------|------------------------|---------------2-----2----|
------------------------|--4--4-----3--L---------|--2-----------------------|


  E  E  E  E  H.             
--0-----------0------------||
--0--------0--0------------||
--2-----2-----1------------||
-----2--------2------------||
--------------2------------||
--0-----------0------------||
Login or Register to remove this ad.