Ads

Michiyuki (Loveless) Guitar Tab

Submitted: Jun 15, 2017 by MechaKrauser

5
Average: 5 (3 votes)
Download | Listen
Game: Loveless
Composer(s): Yuki Kajiura, Masanori Sasaji
Style: Arrangement, Fingerstyle

AutoScroll: Slow | Medium | Fast
Michiyuki
from Loveless
performed by Kaori Hikita
composed by Yuki Kajiura
words by Yuki Kajiura
tab by MechaKrauser

Standard tuning, capo 5
4/4 time, 95bpm


 [Intro]
 
                 ^                       ^                        ^         
     E  E  E  E  H           E  E  E  E  H           E  E  E   E  H         
E||-----------------------|-----------------------|------------------------|
B||-----------------------|-----------------------|---------------1--------|
G||-----------0--2--------|-----------0--2--------|--------2h--3-----------|
D||--------4--------------|--------4--------------|-----0---------1--------|
A||-----2--------3--------|-----2--------3--------|------------------------|
E||--0--------------------|--0--------------------|--3---------------------|


               ^           ^                           ^                 
  E  E  E   E  H           E  E  E  E  E  E  E  E      W                 
------------------------|-----------3--------7-----|--10----------------|
---------------1--------|--3--1--------3--1-----8--|--12----------------|
--------2h--3-----------|--0-----0-----------------|--11----------------|
-----0---------1--------|--2-----------------------|---0----------------|
------------------------|--0-----------------------|--------------------|
--3---------------------|--------------------------|--------------------|


                                                    [Verse 1]
													
                                         ^                                    
  E  E  E  E  E  E  E  E     E  E  E  E  Q    E  E     E  E  Q    Q    E  E   
--------0-----------------|-------------------------|------------------------|
--0--3-----1--3--0--1-----|--0----------------1--0--|------------------1--0--|
--------2-----0--------2--|-----0--2----------------|--2-----2----2----------|
--------------------3-----|--2-----0--3--2----------|--------3---------------|
--------------------------|--------------2----------|-----3------------------|
--------------------------|--------------0----------|--1---------------------|


                                                                 ^            
  E  E  Q    Q    E  E     E  E  E   E  H           E   E  E  E  E  E  E  E   
------------------------|------------------------|---------------------------|
------------------0-----|------------------------|---------------------1--0--|
--2-----2----2-------2--|--0------------0--------|------------2--------------|
--------3---------------|--------2h--3-----------|---------2-----2-----------|
-----3------------------|-----3------------------|--0h--3-----------2--------|
--1---------------------|--0------------0--------|---------------3-----------|


  E  E  Q    Q    E  E     E  E  Q    Q    E  E     E  E  E  E  H         
------------------------|------------------------|--0-----1--0--0--------|
------------------1--0--|------------------1--3--|-----------------------|
--2-----2----2----------|--2-----2----2----------|-----------0-----------|
--------3---------------|--------3---------------|--------2-----2--------|
-----3------------------|-----3------------------|-----3-----------------|
--1---------------------|--1---------------------|--0-----------0--------|


               ^                                                                
  E   E  E  E  E  E  E  E     E  E  E  E  Q    E  E     E  E  E  E  Q    E  E   
---------------------0-----|-------------------0-----|-------------------------|
------------------------3--|--1-----1--0--1-------3--|--1-----1--0--1----0--1--|
------------2--------------|-------------------------|-------------------------|
---------2-----2-----------|--------3----------------|--------3----------------|
--0h--3-----------2--------|-----3-------------------|-----3-------------------|
---------------3-----------|--1----------------------|--1----------------------|


  E  E  E  E  E  E  E  E     E  E  E  E  E  E  E  E     E  E  E  E  Q    Q     
--------------------------|--0-----1--0--0-----------|------------------------|
--3-----3--1-----------3--|--1-----------0-----1--0--|--------------0----1----|
--------------4-----5-----|--------2-----------------|--2-----2--2------------|
--------2-----------2-----|-----2-----------0--2--0--|--------------0----2----|
-----2-----------2--------|--0-----------------------|--3--0--3--3------------|
--0-----------4-----------|--------------3-----------|--1---------------------|


  ^                         ^                          ^          ^            
  E  E  E  E  Q    E  E     E  E   E  E  E  E  Q       E  E  Q    E  E  E  E   
-------------------------|---------------0----------|--------0----------------|
--0----------------------|---------------------3----|--1----------0-----1--3--|
-----------0----------0--|--2---------2--------2----|--2-----2----0--------0--|
--0-----0--2--2----2--2--|--2--0h--2--------2-------|-----2----------0--2-----|
-----2--------2----2-----|--0-----------------------|--0----------------------|
--0----------------------|--------------------------|-------------3-----------|


 [Chorus]
 
  ^                                                                           
  E  E  E  E  Q    E  E     E  E  E  E  Q    E  E     E  E  E  E  Q    E  E   
--0--0--0-----0----5--0--|--0-----0----------------|--0--0--0--0--0----5--0--|
-------------------------|-----------3--3----1--3--|-------------------------|
--2--------2-------------|-----------2-------------|-----------2-------------|
--------2----------2-----|--------2----------2-----|--------2----------2-----|
-----3-------------------|-----3-------------------|-----3-------------------|
--1----------------------|--1----------------------|--1----------------------|


  E  E  E  E  Q    E  E     E  E  E  E  Q    E  E     E  E  E  E  Q    E  E   
--0-----0----------------|-------------------3-----|-------------------------|
-----------3--3----0--1--|--3--3--3--3--3-------3--|--3-----3--1--0----1--3--|
-----------2-------------|-----------0-------------|-----------0-------------|
--------2----------2-----|--------2----------2-----|--------2----------2-----|
-----3-------------------|-----2-------------------|-----2-------------------|
--1----------------------|--0----------------------|--0----------------------|


                                                         ^                       
  E  E  E  E  E  E  E   E     E  E  E  E  E  E  E  E     E  E  E  E  Q    E  E   
--0-----1--0--0------------|--------------0-----------|--0-----0--0--0----5--0--|
--1--------1--------0h--1--|--------------------1--3--|-------------------------|
--------2-----2------------|--------0-----------0-----|--2--------2-------------|
-----2-----------2---------|-----2-----2-----2--------|--------2----------2-----|
--0-----------0------------|--------------------------|-----3-------------------|
---------------------------|--3-----------3-----------|--1----------------------|


  E  E  E  E  Q    E  E     E  E  E  E  Q    E  E     E  E  E  E  Q    E  E   
--0-----0----------------|--0-----0--0--0----5--0--|--0-----0----------------|
-----------3--3----1--3--|-------------------------|-----------3--3----0--1--|
-----------2-------------|--2--------2-------------|-----------2-------------|
--------2----------2-----|--------2----------2-----|--------2----------2-----|
-----3-------------------|-----3-------------------|-----3-------------------|
--1----------------------|--1----------------------|--1----------------------|


  E  E  E  E  Q    E  E     E  E  E  E  Q    E  E     E  E  E  E  E  E  E  E   
-------------------3-----|-------------------------|--0-----1--0--0-----------|
--3--3--3--3--3-------3--|--3-----3--1--0----1--3--|--1--------1--------------|
-----------0-------------|-----------0-------------|--------2-----2-----2-----|
--------2----------2-----|--------2----------2-----|-----2-----------2-----2--|
-----2-------------------|-----2-------------------|--0-----------0-----------|
--0----------------------|--0----------------------|--------------------------|


                           [Break]

  E  E  E  E  E  E  E   E     E  E  E  E  E  E  E  E     E  E  E  E  E  E  E  E   
-----------0---------------|--------------------------|--------------------3-----|
--------------3--1--0h--1--|--1-----------------------|--------0-----1-----3-----|
--------0-----0------------|--------------2-----------|--------------2-----------|
-----2--------------2------|--------2--------2-----2--|--------2--------2-----2--|
---------------------------|-----3-----3--------3-----|-----3-----3--------------|
--3------------------------|--1-----------------------|--1-----------------------|


                                                    [Verse 2]

  ^                          ^                                                
  E  E  E  E  E  E  E  E     E  E  E  E  Q    E  E     E  E  Q    Q    E  E   
--------------------------|-------------------------|------------------------|
--1-----0--1-----1--3-----|--3----------------1--0--|------------------1--0--|
--0-----------0-----0-----|--0-----0----------------|--2-----2----2----------|
--------2--------2-----2--|-----0-----0-------------|--------3---------------|
-----3-----3--------------|--------------2----------|-----3------------------|
--0-----------------------|--3----------------------|--1---------------------|


                                                                    ^            
  E  E  Q    Q    E  E     E  E  E   E  Q    E  E     E   E  E   E  E  E  E  E   
------------------------|--------------------------|----------------------------|
------------------0-----|--------------------0-----|----------------------1--0--|
--2-----2----2-------2--|--0------------0-------2--|--0-------------0-----2--0--|
--------3---------------|--------2h--3-------------|---------2h--3--2-----------|
-----3------------------|-----3--------------------|--0h--3------------2--------|
--1---------------------|--0------------0----------|----------------3-----------|


  E  E  Q    Q    E  E     E  E  Q    Q    E  E     E  E  E  E  H         
------------------------|------------------------|--0-----1--0--0--------|
------------------1--0--|------------------1--3--|-----------------------|
--2-----2----2----2--0--|--2-----2----2----------|-----------0-----------|
--3-----3----3----------|--3-----3----3-------0--|--------2-----2--------|
-----3------------------|-----3------------3-----|-----3-----------------|
--1---------------------|--1---------------------|--0-----------0--------|


               ^                                                                
  E   E  E  E  E  E  E  E     E  E  E  E  Q    E  E     E  E  E  E  Q    E  E   
---------------------0-----|-------------------0-----|-------------------------|
------------------------3--|--1-----1--0--1-------3--|--1-----1--0--1----0--1--|
------------2--------------|-------------------------|-------------------------|
---------2-----2-----------|--3-----3-----3----3-----|--3-----3-----3----3-----|
--0h--3-----------2--------|-----3-------------------|-----3-------------------|
---------------3-----------|--1----------------------|--1----------------------|


  E  E  E  E  E  E  E  E     E  E  E  E  E  E  E  E     E  E  E  E  Q    E  E   
--------------------------|--0-----1--0--0-----------|-------------------------|
--3-----3--1-----------3--|--1-----------0-----1--0--|--------------0----1--1--|
--0-----------4-----5--2--|--------2-----------------|--2-----2--2-------------|
--------2-----2-----2-----|-----2-----------0--2--0--|--------------0----2--2--|
-----2-----------2--------|--0-----------------------|--3--0--3--3-------------|
--0-----------4-----------|--------------3-----------|--1----------------------|


  ^                         ^                          ^           ^            
  E  E  E  E  Q    E  E     E  E  E  E  E  E  E  E     E  E  E  E  E  E  E  E   
-------------------------|--------------0-----------|--------------0-----------|
--0----------------------|--------3-----0-----3-----|--1--0--1--3--------1--3--|
-----------0----------0--|--2-----2-----------2-----|--2-----2-----0--------0--|
--0-----0--2--2----2--2--|--2--0-----2-----2-----2--|-----2-----2-----0--2-----|
-----2--------2----2-----|--0-----------------------|--0-----------------------|
--0----------------------|--------------------------|--------------3-----------|


 [Chorus 2]

  ^                                                                           
  E  E  E  E  Q    E  E     E  E  E  E  Q    E  E     E  E  E  E  Q    E  E   
--0--0--0-----0----5--0--|--0-----0----------------|--0--0--0--0--0----5--0--|
-------------------------|-----------3--3----1--3--|-------------------------|
--2--------2-------------|-----------2-------------|-----------2-------------|
--------2----------2-----|--------2----------2-----|--------2----------2-----|
-----3-------------------|-----3-------------------|-----3-------------------|
--1----------------------|--1----------------------|--1----------------------|


  E  E  E  E  Q    E  E     E  E  E  E  Q    E  E     E  E  E  E  Q    E  E   
--0-----0----------------|-------------------3-----|-------------------------|
-----------3--3----0--1--|--3--3--3--3--3-------3--|--3-----3--1--0----1--3--|
-----------2-------------|-----------0-------------|-----------0-------------|
--------2----------2-----|--------2----------2-----|--------2----------2-----|
-----3-------------------|-----2-------------------|-----2-------------------|
--1----------------------|--0----------------------|--0----------------------|


                                          ^              ^                       
  E  E  E  E  E  E  E   E     E  E  E  E  E  E  E  E     E  E  E  E  Q    E  E   
--0-----1--0--0------------|--0-----1--0--0-----------|--0--0--0--0--0----5--0--|
--1--------1--------1h--3--|--------------------1--3--|-------------------------|
--------2-----2------------|--------0-----------0-----|--2--------2-------------|
-----2-----------2---------|-----2-----2-----2--------|--------2----------2-----|
--0-----------0------------|--------------------------|-----3-------------------|
---------------------------|--3-----------3-----------|--1----------------------|


  E  E  E  E  Q    E  E     E  E  E  E  Q    E  E     E  E  E  E  Q    E  E   
--0-----0----------------|--0-----0--0--0----5--0--|--0-----0----------------|
-----------3--3----1--3--|-------------------------|-----------3--3----0--1--|
-----------2-------------|--2--------2-------------|-----------2-------------|
--------2----------2-----|--------2----------2-----|--------2----------2-----|
-----3-------------------|-----3-------------------|-----3-------------------|
--1----------------------|--1----------------------|--1----------------------|


  E  E  E  E  Q    E  E     E  E  E  E  Q    E  E     E  E  E  E  E  E  E   E   
-------------------3-----|-------------------------|--0-----1--0--0------------|
--3--3--3--3--3-------3--|--3-----3--1--0----1--3--|--1--------1--------1h--3--|
-----------0-------------|-----------0-------------|--------2-----2------------|
--------2----------2-----|--------2----------2-----|-----2-----------2---------|
-----2-------------------|-----2-------------------|--0-----------0------------|
--0----------------------|--0----------------------|---------------------------|


                           [Interlude]

                              ^                                                   
  E  E  E  E  E  E  E   E     E  E  E  E  E  E  E  E     E  E  E  E  E  E  E  E   
--0-----1--0---------------|--------------------1-----|--3-----------------------|
-----------0--3--1--0h--1--|--1-----------------------|--------------6-----------|
--------0-----0------------|--2-----------2-----------|--------0-----------------|
-----2--------------2------|--------2--------2-----2--|-----0-----0--------6-----|
---------------------------|-----3-----3--------3-----|-----------------5-----5--|
--3------------------------|--1-----------------------|--3-----------4-----------|


                             ^                                                   
  E  E  E  E  E  E  E  E     E  E  E  E  E  E  E  E     E  E  E  E  E  E  E  E   
--0-----------------------|--------------------------|--------------------------|
--1-----------------------|--------------------------|--1-----------------------|
--------2-----------2-----|--4-----------2-----------|--------------2-----------|
-----2-----2-----2-----2--|--------2-----------4-----|--------2--------2-----2--|
--0-----------3-----------|-----3-----3-----3-----3--|-----3-----3--------3-----|
--------------------------|--2-----------2-----------|--1-----------------------|


                                                              *Bar 2
                                                        ^ 
  E  E  E  E  E  E  E  E     E  E  E  E  E  E  E  E     E  E  E  E  E  E  S  S S  S  
--0-----------------------|--------------------------|--0---------------------------|
--------------3-----------|--3-----1-----0-----1-----|-----------------3------------|
--------0-----------------|--------2-----------2-----|--5-----4--5-----2-------2h-4-|
-----0-----0--------6-----|-----2-----2-----2-----2--|--------2-----------4h-5------|
-----------------5-----5--|--0-----------3-----------|-----3-----3------------------|
--3-----------4-----------|--------------------------|--2-----------2---------------|


                                                        ^        ^               
  E  E  E  E  E  E  E  E     E  E  E  E  E  E  E  E     E  E  E  E  E  E  E  E   
--------------------1-----|--3-----------------------|-----------5--------5--0--|
--1-----------------------|--------------6-----------|--5-----------------------|
--------------2-----------|--------0-----------------|--5-----2-----------2-----|
--------2--------2-----2--|-----0-----0--------6-----|-----2-----2-----2-----2--|
-----3-----3--------3-----|-----------------5-----5--|--0-----------3-----------|
--1-----------------------|--3-----------4-----------|--------------------------|


  ^                                                                              
  E  E  E  E  E  E  E  E     E  E  E  E  E  E  E  E     E  E  E  E  E  E  E  E   
--------------------------|--------------------------|--------------------------|
--------------------------|--1--------------0--1--3--|--1--------------0--1--3--|
--4--------2--------------|-----------------------2--|--0--------------------0--|
--------2-----------4-----|--------2-----------2-----|--------2-----------2-----|
-----3-----3-----3-----3--|-----3-----3-----3--------|-----3-----3-----3--------|
--2-----------2-----------|--1-----------1-----------|--0-----------0-----------|


                             ^                          ^                        
  E  E  E  E  E  E  E  E     E  E  E  E  E  E  E  E     E  E  E  E  E  E  E  E   
--------------------------|--------------------------|--------------------------|
--1-----------0-----1-----|--3-----------------------|--0-----------------------|
--2-----------------------|--4-----0-----5-----0-----|--0-----0-----------0-----|
--------2-----------2-----|-----0-----0-----0-----0--|-----0-----0-----0-----0--|
-----3-----3-----3-----3--|--------------2-----------|--------------2-----------|
--1-----------1-----------|--3-----------------------|--3-----------------------|


                     [Final Verse]

  ^                                                                     
  H.           E  E     E  E  Q    Q    E  E     E  E  Q    Q    E  E   
--3------------------|------------------------|------------------------|
---------------1--0--|------------------1--0--|------------------0-----|
--0------------------|--2-----2----2----------|--2-----2----2-------2--|
---------------------|--------3---------------|--------3---------------|
---------------------|-----3------------------|-----3------------------|
--3------------------|--1---------------------|--1---------------------|


                                        ^                                     
  E  E  E   E  H           E   E  E  E  E  E  E  E     E  E  Q    Q    E  E   
------------------------|---------------------------|------------------------|
------------------------|---------------------1--0--|------------------1--0--|
--0------------0--------|------------2--------------|--2-----2----2----------|
--------2h--3-----------|---------2-----2-----------|--------3---------------|
-----3------------------|--0h--3-----------2--------|-----3------------------|
--0------------0--------|---------------3-----------|--1---------------------|


                                                                ^            
  E  E  Q    Q    E  E     E  E  E  E  H           E   E  E  E  E  E  E  E   
------------------------|--0-----1--0--0--------|---------------------0-----|
------------------1--3--|-----------------------|------------------------3--|
--2-----2----2----------|-----------0-----------|------------2--------------|
--------3---------------|--------2-----2--------|---------2-----2-----------|
-----3------------------|-----3-----------------|--0h--3-----------2--------|
--1---------------------|--0-----------0--------|---------------3-----------|


  E  E  E  E  Q    E  E     E  E  E  E  Q    E  E     E  E  E  E  E  E  E  E   
-------------------0-----|-------------------------|--------------------------|
--1-----1--0--1-------3--|--1-----1--0--1----0--1--|--3-----3--1-----------3--|
-------------------------|-------------------------|--0-----------4-----5--2--|
--3-----3-----3----------|--3-----3-----3----------|--------2-----2-----2-----|
-----3-------------------|-----3-------------------|-----2-----------2--------|
--1----------------------|--1----------------------|--0-----------4-----------|


  ^                                                     ^                       
  E  E  E  E  E  E  E  E     E  E   E  E  Q    E  E     E  E  E  E  Q    E  E   
--0-----1--0--0-----------|--------------------------|-------------------------|
--1-----------0-----1--0--|---------------0----1--1--|--0----------------------|
--------2-----------------|--2---------2-------------|-----------0----------0--|
-----2-----------0--2--0--|---------------0----2--2--|--0-----0--2--2----2--2--|
--0-----------------------|--3--0h--3--3-------------|-----2--------2----2-----|
--------------3-----------|--1-----------------------|--0----------------------|


                           [Outro]

  ^                           ^                                  ^         
  E  E   E  E  E  E  E  E     E  E  Q    H           E  E  E  E  H         
---------------0-----------|----------------------|-----------------------|
---------------------3-----|--1-------------------|-----------------------|
--2---------2--------2-----|--2-----2----L--------|-----------0--2--------|
--2--0h--2--------2-----2--|-----2----------------|--------4--------------|
--0------------------------|--0-------------------|-----2--------3--------|
---------------------------|----------------------|--0--------------------|


                          *72bpm            *47bpm
              ^           ^     ^     ^              ^                                      
  E  E  E  E  H           E  E  E  E  E  E  E  E     W                   W                  
-----------------------|--------------------------|-------------------|-------------------||
-----------------------|--3--1--------------------|-------------------|-------------------||
-----------0--2--------|--3-----0-----------------|--5----------------|--L----------------||
--------4--------------|--1-----0--3--0-----------|--3----------------|--L----------------||
-----2--------3--------|--------------0--3--------|--5----------------|--L----------------||
--0--------------------|--------------------3--1--|--3----------------|--L----------------||




Duration Legend
---------------
W - whole
H - half
Q - quarter
E - 8th
S - 16th
T - 32nd
X - 64th
. - note dotted
|-n-|  - n-tuplets


Tablature Legend
----------------
L - tied note
x - dead note
g - grace note
(n) - ghost note
> - accentuded note
NH - natural harmonic
AH - artificial harmonic
TH - tapped harmonic
SH - semi harmonic
PH - pitch harmonic
h - hammer on
p - pull off
b - bend
br - bendRelease
pb - preBend
pbr - preBendRelease
brb - bendReleaseBend
\n/ - tremolo bar dip
\n - tremolo bar dive
-/n - tremolo bar Release up
/n\ - tremolo bar inverted dip
/n - tremolo bar return
-\n - tremolo bar Release down
S - shift slide
s - legato slide
/ -  slide into from below or out of upwards
\ -  slide into from above or out of downwards
~ - vibrato
W - wide vibrato
tr - trill
TP - tremolo picking
T - tapping
S - slap
P - pop
< - fade in
^ - brush up
v - brush down
Login or Register to remove this ad.

6 comments on Michiyuki

Here's a video of me playing

Here's a video of me playing this song for the first time, you'll get a good feel for how to play it as well as a difficulty level:

https://www.youtube.com/watch?v=-JyjSx8l3CY

Nice vid :)

Oh hey that's cool! :)

I do play a couple parts differently though. I usually bar and de-bar the b-string 1-to-0's during the F chords. For Bar 12 I hammer the 3 with my pinky and use pinky-middle-ring for the 3-2-2 and then shift the whole chord down a string, leaving my pointer open for the 1. And with the capo you can get away with holding the F chord for most of the chorus and only breaking your pinky away for the 5s and b-string 3s

Bar 84 is kind of tough. It could be played a bit easier without barring the 2, but having the 2 barred makes those 16th notes at the end easier to transition into.

Anyways, thanks for showing off my tab! :3 I might have to log into youtube for once and give you a like...

I'm glad you approve =D I'm

I'm glad you approve =D

I'm gonna try to make a video of most classical/fingerstyle tabs that come across the site. I'll start working through the backlog of tabs if I have time between newer tabs

Sounds good, I'll be tuning

Sounds good, I'll be tuning in :)

Damn it, this song is just

5

Damn it, this song is just beautiful! I loved it when I listened to for the first time (It's been almost 10 years, I think). It's nice to see such a gorgeous arrangement from it. Thanks for sharing!

Thanks :)

Thanks, I'm a big fan of the song and the anime :)