Ads

Autumn Ale (The Lord of the Rings Online: Shadows of Angmar) Guitar Tab

Submitted: Jun 19, 2013 by thedstring

5
Average: 5 (1 vote)
Download | Listen
Game: The Lord of the Rings Online: Shadows of Angmar
Composer(s): Stephen DiGregorio, Chance Thomas
Style: Transcription

AutoScroll: Slow | Medium | Fast
Autumn Ale
Lord of the Rings Online

Composed by Chance Thomas
Arranged by Nate Brooks (thedstring)

Original Song http://www.youtube.com/watch?v=1Y1Xq5nMx2E

Standard Tuning - no capo

6/8 meter


Part A
    |                 |                |                 |
||-----------------------------------|----------------------------------|
||-----------------------------------|----------------------------------|
||--2>----0-----2-----4>----2h4h2-0--|-------------------------------0--|
||-----------------------------------|-4>----2h4h2-0-----2>----4--------|
||-----------------------------------|----------------------------------|
||-----------------------------------|----------------------------------|

 |                 |                |                 |
----------------------------------|------------------------------------|
----------------------------------|------------------------------------|
-2>----0-----2-----4>----2h4h2-0--|------------------------------------|
----------------------------------|-4>----2h4h2-0-----2>----0----------|
----------------------------------|------------------------------------|
----------------------------------|------------------------------------|



Part B
 |        |            |        |
---------------------|-------------------|
-3>-1--3--1>-3h1--0--|-------------0-----|
---------------------|-2>----0--2>----2--|
---------------------|----4--------------|
---------------------|-------------------|
---------------------|-------------------|

 |        |            |           |
---------------------|------------------------------|
-3>-1--3--1>-3h1--0--|------------------------------|
---------------------|-2>--0------------------------|
---------------------|---------4---2>--2h4h2-0------|
---------------------|------------------------------|
---------------------|------------------------------|


Part A x4

Part B

Part A 2x

Part B

Part A 4x

Part B

Part A 2x
Login or Register to remove this ad.

1 comment on Autumn Ale

Something here

.