Ads

Untitled 『Koi wo Mareru Kisokyoku』 (Little Busters!) Guitar Tab

Submitted: Dec 27, 2020 by scarecrowlol (Last updated: Dec 28, 2020)

5
Average: 5 (4 votes)
Download | Listen
Game: Little Busters!
Composer(s): Jun Maeda, PMMK, Manack, Shinji Orito, Magome Togoshi
Style: Arrangement, Fingerstyle, Pinch harmonics

This song is also called Untitled 'A Capriccio Played By An Awakening Love'

Click here for a video example.

AutoScroll: Slow | Medium | Fast
Title: Untitled 『Koi wo Mareru Kisokyoku』 (Kurugaya's Piano Song)
SubTitle: Little Busters!
Artist: Manack
Tabber: Mitch Jackson
Tempo = 76
T/S = 4/4

Left hand fingering is included in the GP file as a guide.

---------
LEGEND
---------
(?) = Ghost Note
<?> = Pinch Harmonic
^ = Upstroke
L = Hold Previous Note
rall = Begin to Slow Down



    ♪♫•*¨*•.¸¸ CAPO 2 ¸¸.•*¨*•♫♪

       
     ^                            ^                            ^                            ^  
     E  E  E  E  E  E  E  E       E  E  E  E  Q     Q          E  E  E  E  E  E  E  E       E  E  E  E  H
E |--0--------0-----------0----|----------------------------|----------------------------|--------------5-------------|
B |--1-----1--------1--3-------|--4--------4--0-------------|--3--------3--------1--3----|--2--------2----------------|
G |--2--2--------2-------------|--2-----4-----------5-------|--0--0--3-----0--3----------|--0-----2-------------------|
D |----------------------------|-----4----------------------|----------------------------|--2--2----------------------|
A |--3-------------------------|--2-------------------------|--1-------------------------|--0-------------------------|
D |----------------------------|----------------------------|----------------------------|----------------------------|

                                  ^                            ^                           ^           ^
     E  E  E  E  E  E  E  E       E  E  E  E  Q     Q          E  E  E  E  E.  E.  E       E  E  E  E  H
  |--2-------------------------|--2-------------------------|------------------0---2----|--0----------(0)------------|
  |--3--------3--------2--3----|--3--------3--------2-------|--3--------3--3------------|--3--------3--2-------------|
  |--4-----4--------4----------|--4-----4-----4-------------|--4-----4------------------|--2-----2-----2-------------|
  |-----4--------4-------------|-----4----------------------|--4--4---------------------|-----2----------------------|
  |--2-------------------------|--0-------------------------|---------------------------|--0-------------------------|
  |----------------------------|----------------------------|--6------------------------|----------------------------|

     ^                            ^                            ^                            ^                 
     E  E  E  E  E  E  E  E       E  E  E  E  Q     E  E       E  E  E  E  E  E  E  E       E  E  E  E  H
  |--0--------0-----------0----|--------------2-------------|----------------------------|--------------5-------------|
  |--1-----1--------1--3-------|--4--------4--------0-------|--3--------3--------1--3----|--2--------2--5-------------|
  |--2--2--------2-------------|--2-----4--------------5----|--0--0--3-----0--3----------|--0-----2-------------------|
  |----------------------------|-----4----------------------|----------------------------|--2--2----------------------|
  |--3-------------------------|--2-------------------------|--1-------------------------|--0-------------------------|
  |----------------------------|----------------------------|----------------------------|----------------------------|

     ^           ^                ^           ^                ^          P.H               ^
     H           E  E  E  E       Q     Q     E  E  E  E       E  E  E  E  Q     E  E       E  E  E  E  E  E  E  E
  |--2--------------------7----|--5--------------0--2--5----|--3-----0--3--------2--3----|--5-----------0--------0----|
  |--3-----------5--7--8-------|--5-----5-----4-----0-------|--3----------<0>------------|--3--------3--------3-------|
  |--1-----------6-------------|--5-----------2-------------|-----4----------------------|--------2--------2----------|
  |--------------5-------------|--4-------------------------|--2-------------------------|-----2----------------------|
  |----------------------------|--------------2-------------|----------------------------|--0-------------------------|
  |----------------------------|----------------------------|----------------------------|----------------------------|

     ^           ^                **        
     H           H                E  E  E  E  E  E  E  E       E  E  E  E  E  E  Q          E  E  E  E  E  E  E  E
  |--------------5-------------|--------2-----------0--2----|-----3--5--0----------------|--------0--------------0----| ** Partial 
  |--2-----------5-------------|--0-----------0--3----------|--3-----------3-----0-------|--1--------------1--3-------| barre the 
  |--2-----------6-------------|--0-----------0-------------|--0-----------0-----0-------|--2-----------2-------------| bottom 2
  |--2-------------------------|--------4-----------4-------|--------------------4-------|--3-----2-----------2-------| strings with
  |--------------0-------------|-----2-----2-----2-----2----|-----2-----2-----2----------|-----0-----0-----0-----0----| index finger
  |----------------------------|--2-----------2-------------|--2-----------2-------------|--0-----------0-------------|

                                                                                            ^
     E  E  E  E  E  E  Q          E  E  E  E  E  E  E  E       E  E  E  E  E  E  E  E       E  E  E  E  E  E  E  E
  |-----1--3-----------0-------|--------2-----------0--2----|-----3--5-------------------|--2-----2-------------------|
  |--1--------3--1-----1-------|--0-----------0--3----------|--3--------5--3-----3-------|--4-----4-----------2-------|
  |--2-----------2-------------|--0-----------0-------------|--4-----2-----4-----2-------|--3-----------3-----4-------|
  |--3-----2-----3-----3-------|--------4-----------4-------|-----2-----2-----2-----2----|-----4-----4-----4-----4----|
  |-----0-----0-----0----------|-----2-----2-----2-----2----|--0-----------0-------------|--2-----------2-------------|
  |--0-----------0-------------|--2-----------2-------------|----------------------------|----------------------------|

                                                         
     E  E  E  E  Q.       E       E  E  E  E  E  E  E  E       E  E  Q     Q     Q          E  E  E  E  E  E  E  E
  |--------2-----6-------------|--2-----0--2--2--0----------|----------------------------|--------------7-------------|
  |--4-----4-----2--------0----|-----0--------2-----4--2----|--2-----4-----0-------------|--4-----4--5--5-------------|
  |--3-------------------------|--1-----------0-------------|--1-----1-----1-----1-------|--------------------6-------|
  |-----4-----4----------------|--2-----------1-----1-------|-----1--------3-------------|-----6-----------6-----6----|
  |--2-----------2-------------|----------------------------|----------------------------|--4-------------------------|
  |----------------------------|----------------------------|----------------------------|----------------------------|

     ^                            ^                            ^                            ^                          
     E  E  E  E  E  E  E  E       E  E  E  E  E  E  E  E       H           H                E  E  E  E  E  E  E  E
  |----------------------------|--------------------4--7----|--10----------6-------------|----------------------------|
  |--4-----4-----7--4----------|--4--------------5----------|--11----------5-------------|--2-----2-----------2-------|
  |--4-----------------4-------|--4-----------4-------------|--9-------------------------|--3-----------3-------------|
  |--6--6-----6-----------6----|--6-----4--6--------4-------|----------------------------|-----4-----4-----4-----4----|
  |--4-------------------------|-----4----------------------|--9-------------------------|--2-------------------------|
  |----------------------------|--4-------------------------|-------------(4)------------|----------------------------|

                                  ^                                                         ^
     E  E  E  E  E  E  E  E       E  E  E  E  E  E  E  E       E  E  E  E  E  E  E  E       E  E  E  E  E  E  E  E 
  |--------------------2-------|--5-------------------------|----------------------------|----------------------------|
  |--------2-------------------|--3-----3-----------2-------|--------2-----------2-------|--2-----2-----------2-------|
  |--------------3-------------|--------6-----4-------------|--------------4-------------|--3-----------3-------------|
  |-----4-----4-----4-----4----|-----4-----4-----4-----4----|-----4-----4-----4-----4----|-----4-----4-----4-----4----|
  |--2-------------------------|--2-------------------------|--2-------------------------|--2-------------------------|
  |----------------------------|----------------------------|----------------------------|----------------------------|
                                                         
                                  ^                    rall                  P.H
     E  E  E  E  E  E  E  E       E  E  E  E  E  E  E  E       E  E  E  E  E  Q.            W
  |----------------------------|----------------------------|--------------4-------------|----------------------------||
  |--------2-----------2-------|--3-----------3--------2----|-----5-----2----<2>---------|--L-------------------------||
  |--------------3-------------|--4-----4-----6--2----------|--2-----2-------------------|----------------------------||
  |-----4-----4-----4-----4----|--4--4-----4--------4-------|----------------------------|----------------------------||
  |--2-------------------------|--2-------------------------|----------------------------|----------------------------||
  |----------------------------|----------------------------|----------------------------|----------------------------||

Login or Register to remove this ad.