Ads

Two Sugars (Little Busters!) Guitar Tab

Submitted: Feb 28, 2014 by Basisti94

5
Average: 5 (6 votes)
Download | Listen
Game: Little Busters!
Composer(s): Jun Maeda, PMMK, Manack, Shinji Orito, Magome Togoshi
Style: Arrangement, Fingerstyle

AutoScroll: Slow | Medium | Fast
                          Two Sugars
                                
Little Busters!
Jun Maeda, PMMMK
Guitar arrangement by Basisti94 (Miro Laaksonen)
27.2.2014

------------------------
If I remember correctly, it was used as a title theme in the VN.
------------------------


(Time signature varies between 5/4 and 3/4)
Capo 1
Tempo ~ 101

              |--3--|  |--3-|  |--3-|              |--3--|   
     H        E  E  E  Q    E  Q    E     H        E  E  E   
E||--5--------3--2--0-------0--0-------|--2--------2--0-----|
B||--------------------3------------3--|-----------------3--|
G||--------------------4-------3-------|--2-----------------|
D||--0-----------------0-------0-------|--0-----------------|
A||------------------------------------|--------------------|
E||------------------------------------|--------------------|


  |--3-|  |--3-|  |--3-|                                     
  Q    E  Q    E  Q    E     Q.     Q.        H        Q     
-----------------------0--|--0------2------|--L-------------|
-------3--3----2--3-------|----------------|-----------3----|
--2-----------------------|--2-------------|----------------|
--------------------------|--0-------------|----------------|
--1-------0-------3-------|----------------|----------------|
--------------------------|----------------|----------------|


           |--3--|  |--3-|  |--3-|              |--3--|   
  H        E  E  E  Q    E  Q    E     H        E  E  E   
--5--------3--2--0-------0--0-------|--2--------2--0-----|
--------------------3------------3--|-----------------3--|
--------------------4-------3-------|--2-----------------|
--0-----------------0-------0-------|--0-----------------|
------------------------------------|--------------------|
------------------------------------|--------------------|


  |--3-|  |--3-|  |--3-|                             
  Q    E  Q    E  Q    E     Q.     Q.     H         
-----------------------0--|-------------------------|
-------3--3----2--3-------|--3----------------------|
--2-----------------------|--2----------------------|
--------------------------|---------4------L--------|
--1-------0-------3-------|--5----------------------|
--------------------------|-------------------------|


                                                         |--3--|   
  Q     E   E   E   E  H           Q    E  E  E  E  Q    E  E  E   
-------12--10--12---------------|-------0-----0-------------------|
-------------------10--L--------|----------3----------------------|
--------------------------------|----------------2--L----L--------|
--0-----------------------------|--0------------------------4--2--|
--------------------------------|---------------------------------|
--------------------------------|---------------------------------|


       |-3-|               |--3--|                                    
  Q    S S S  E  E   E  E  E  E  E  S S    S S E  H        Q    Q     
-----------0-10--9--10------------------|------0--L--------L---------|
-------2-3--------------5--3--2--0----0-|--2-3------------------3----|
------------------------------------2---|----------------------------|
--0-------------------------------------|--0-------------------------|
----------------------------------------|----------------------------|
----------------------------------------|----------------------------|


         |--3-|  |---3--|   |---3--|         
  Q.     S S  S  E   E  E   E  E   E   Q     
----------------12--10--9------9--10--12----|
-------------10------------12---------------|
---------7-9--------------------------------|
--0-----------------------------------------|
--------------------------------------------|
--------------------------------------------|


                                                                |--3--|   
  Q     E   E   Q     E   E   Q       H         E  S S  S S S S E  E  E   
-------17--17--17----12--12--12----|-----------10--9-7-------------------|
-----------------------------------|-------------------10-8-7---------0--|
-----------------------------------|--------------------------9-7--6-----|
--0--------------------------------|--0-----------------0----------------|
-----------------------------------|-------------------------------------|
-----------------------------------|-------------------------------------|

      *
  Q.     E  S  S S S S S  S S S  S  E     H.           H         
----------------------------7-9-10-12--|--L------------L--------|
---------------------7-8-10------------|------------------------|
--2--------------7-9-------------------|------------------------|
--2------7--9-10-----------------------|------------------------|
--0------------------------------------|--L------------L--------|
---------------------------------------|------------------------|


           |--3--|  |--3-|  |--3-|              |--3--|   
  H        E  E  E  Q    E  Q    E     H        E  E  E   
--5--------3--2--0-------0--0-------|--2--------2--0-----|
--------------------3------------3--|-----------------3--|
--------------------4-------3-------|--2-----------------|
--0-----------------0-------0-------|--0-----------------|
------------------------------------|--------------------|
------------------------------------|--------------------|


  |--3-|  |--3-|  |--3-|                                     
  Q    E  Q    E  Q    E     Q.     Q.        H        Q     
-----------------------0--|--0------2------|--L-------------|
-------3--3----2--3-------|----------------|-----------3----|
--2-----------------------|--2-------------|----------------|
--------------------------|--0-------------|----------------|
--1-------0-------3-------|----------------|----------------|
--------------------------|----------------|----------------|


           |--3--|  |--3-|  |--3-|              |--3--|   
  H        E  E  E  Q    E  Q    E     H        E  E  E   
--5--------3--2--0-------0--0-------|--2--------2--0-----|
--------------------3------------3--|-----------------3--|
--------------------4-------3-------|--2-----------------|
--0-----------------0-------0-------|--0-----------------|
------------------------------------|--------------------|
------------------------------------|--------------------|


  |--3-|  |--3-|  |--3-|              |---3--|                   
  Q    E  Q    E  Q    E     H        E  E   E     H.            
-----------------------0--|---------------------|---------------|
-------3--3----2--3-------|--3------------------|--L------------|
--2-----------------------|--0--------L---------|---------------|
--------------------------|--0-----------4p--2--|--4------------|
--1-------0-------3-------|---------------------|---------------|
--------------------------|---------------------|---------------|


---------------||
---------------||
---------------||
---------------||
---------------||
---------------||


*
In bar 17, the chord is actually held twice as long and the scale is played
twice as fast in the original, but at least I wasn't able to pull it off comfortably,
so I changed it a little.


Duration Legend
---------------
W - whole
H - half
Q - quarter
E - 8th
S - 16th
T - 32nd
X - 64th
. - note dotted
|-n-|  - n-tuplets


Tablature Legend
----------------
L - tied note
x - dead note
g - grace note
(n) - ghost note
> - accentuded note
NH - natural harmonic
AH - artificial harmonic
TH - tapped harmonic
SH - semi harmonic
PH - pitch harmonic
h - hammer on
p - pull off
b - bend
S - shift slide
s - legato slide
/ -  slide into from below or out of upwards
\ -  slide into from above or out of downwards
~ - vibrato
W - wide vibrato
tr - trill
TP - tremolo picking
T - tapping
S - slap
P - pop
< - fade in
^ - brush up
v - brush down
Login or Register to remove this ad.

4 comments on Two Sugars

Good work! i clearly remember

5

Good work! i clearly remember this catchy tune from the anime c:

Just noticed...

5

Hey I just noticed that all the Little Busters tabs are stashed away in the PC section, haha. I had only looked in the Anime section before, since that's where all the Air, Clannad, and Kanon tabs are.

Nice tab btw. I really, really like playing the intro to this :3

It gets a little confusing

It gets a little confusing since they all have both a visual novel and anime adaptation. If they mostly share the same music though, I could probably file them under both the Anime and PC section rather than having two separate listings for each.

That sounds like a good idea.

That sounds like a good idea. I just never considered that there may have been tabs posted before it became an anime, since the other VN adaptations are present in the anime section and I only ever watched the anime versions.

I'm not sure about which games, but I'm pretty sure some VNs had their tracks remixed for the anime adaptations. For example Yosuga no Sora had its OST overhauled for the anime and the tracks vary a good deal from the original VN OST.