Ads

Song for Friends (Little Busters!) Guitar Tab

Submitted: May 03, 2014 by Basisti94

5
Average: 5 (4 votes)
Download | Listen
Game: Little Busters!
Composer(s): Jun Maeda, PMMK, Manack, Shinji Orito, Magome Togoshi
Style: Arrangement, Fingerstyle

AutoScroll: Slow | Medium | Fast
                          Song For Friends
                                
Little Busters!
Rita
Guitar arrangement by Basisti94 (Miro Laaksonen)
2.5.2014


Note that the time signature is 7/8 on the verse parts


Capo 2
Tempo ~ 67
     H.           E  S S    E  E  E  E  S S S S E     E  E  E  E  S S S S E   
E||----------------------|--0--------3-------------|--------------------3----|
B||--------------------1-|-----3--1---------3-1-0--|--3--0-----1------3------|
G||------------------2---|----------------0--------|--------0-------0---0-0--|
D||---------------3------|--------------0----------|--------------0----------|
A||----------------------|-------------------------|-------------------------|
E||----------------------|--1--------3-------------|--0--------1-------------|


  E  E  E  E  S S S S E     E  E  E  E  S S S S E     E  E  E  E  S S S S E   
--0--------3-------------|-------------------------|--0----------------------|
-----3--1---------3-1-0--|-----0-----1------3-1-1--|-----3--1--1------3-1-0--|
----------------0--------|--0-----0-------0--------|----------------0---0-0--|
--------------0----------|-------------------------|--------------0----------|
-------------------------|-----------3--3----------|-------------------------|
--1--------3-------------|--0---------------3------|--1--------3-------------|


  E  E  E  E  S S S S E     E  E  E  S S S S S S E     E  E  E  E  S S S S E   
--0-----------------3----|--0-----------------------|--------------------3----|
-----3--1--3------3------|-----3--1--1-------3-1-0--|--------0--1------3------|
----------------0---0-0--|-------------0---0---0-0--|--0--0----------0---0-0--|
--------------0----------|---------------0----------|-------------------------|
-------------------------|--------------------------|-----------3--3----------|
--0--------1-------------|--1--------3--------------|--0---------------3------|


  E  E  E  S S S S S S E     E  E  E  S S S S S S S S  
--0-----------------------|--0------------------3-----|
-----3--1--1-------3-1-0--|-----3--1--1-3-----3---1-3-|
-------------0---0---0-0--|-----------------0---------|
---------------0----------|---------------0-----------|
--------------------------|---------------------------|
--1--------3--------------|--0--------1---------------|


  E  E  E  S S S S S S E     E  E  E  E  S S S S E     E  E  E  S S S S S S E   
--0-----------------------|--------------------3----|--0-----------------------|
-----3--1--1-------3-1-0--|--------0--1------3------|-----3--1--1-------3-1-0--|
-------------0---0---0-0--|--0--0----------0---0-0--|-------------0---0---0-0--|
---------------0----------|-------------------------|---------------0----------|
--------------------------|-----------3--3----------|--------------------------|
--1--------3--------------|--0---------------3------|--1--------3--------------|


  E  E  E  S S S S S S E     E  E  E  S S S S S S E   
--0------------------3----|--0-----------------------|
-----3--1--1-3-----3---3--|-----3--1--1-------3-1-0--|
-----------------0--------|-------------0---0---0-0--|
---------------0----------|---------------0----------|
--------------------------|--------------------------|
--0--------1--------------|--1--------3--------------|


  E  E  E  E  S S S  S S S    E  E  E  Q    E     E  E  E  Q    Q     
---------------------------|--------0----------|--------3--0---------|
--------0--1-------------0-|--1--1-----3----1--|--3--1----------3----|
--0--0----------0------0---|-------------------|---------------------|
------------------0h-2-----|-------------------|---------------------|
-----------3--3------------|--0----------------|-----------0---------|
--0------------------------|----------------1--|--3------------------|


  E  E  S S S S E  E  E  S S    E  E  E  E  Q    E  S S  
------------0----------------|--------------0-----------|
--1-------1---3-------1--1-0-|--1--------1----------1-3-|
--------0----------0---------|--------0-----------------|
-----0----------0------------|-----2--------------------|
-----------------------------|--3-----------------------|
--0--------------------------|----------------------0---|


  E  E  E  S S E  S S S S S S    S S E  E  S S E  S S S S S S  
--3-----0---------------------|--------------0----------------|
-----------3-1----------0-1-1-|--3-1-------3------------0-1-3-|
--------2-------------0-------|-----------------------0-------|
-----2---------0----0---------|---------2-----------0---------|
--0---------------------------|------2------------------------|
------------------3-----------|--0-------------1--3-----------|


  E  E  E  S S E  S S S S S S    S S E  E  S S E  S S S S S S  
--3-----0---------------------|-------------------------------|
-----------3-1----------0-1-1-|--3-1-------0-1------------1-3-|
----------------------0-------|---------0-------------3-0-----|
--------3-----------0---------|------0--------------0---------|
-----3------------------------|----------------3--------------|
--1------------3--3-----------|--3----------------3-----------|


  E  E  E  S S E  S S S S S S    S S E  E  S S E  E  E  E   
--3-----0---------------------|--------------0-------------|
-----------3-1----------0-1-1-|--3-1----1--3---------3-----|
--------2-------------0-------|-------------------2-----0--|
-----2---------0----0---------|---------2---------3-----0--|
--0---------------------------|------2---------------------|
------------------3-----------|--0-------------1-----3-----|


  Q.     E  E  E  E  E     E  E  E  E  E  E  E  E     E  E  E  E  S S S S E   
------------------------|--------------------------|--0--------3-------------|
--1---------0--0--1--1--|--1--1--0--1--------1--3--|-----3--1---------3-1-0--|
---------0--------------|-----------------0--------|----------------0--------|
------------------------|--------------------------|--------------0----------|
------------------------|--------------3-----------|-------------------------|
--1---------3-----3-----|--1-----------------------|--1--------3-------------|


  E  E  E  E  S S S S E     E  E  E  E  S S S S E     E  E  E  E  S S S S E   
--------------------3----|--0--------3-------------|-------------------------|
--3--0-----1------3------|-----3--1---------3-1-0--|-----0-----1------3-1-1--|
--------0-------0---0-0--|----------------0--------|--0-----0-------0--------|
--------------0----------|--------------0----------|-------------------------|
-------------------------|-------------------------|-----------3--3----------|
--0--------1-------------|--1--------3-------------|--0---------------3------|


  E  E  E  E  S S S S E     E  E  E  E  S S S S E     E  E  E  S S S S S S E   
--0----------------------|--0-----------------3----|--0-----------------------|
-----3--1--1------3-1-0--|-----3--1--3------3------|-----3--1--1-------3-1-0--|
----------------0---0-0--|----------------0---0-0--|-------------0---0---0-0--|
--------------0----------|--------------0----------|---------------0----------|
-------------------------|-------------------------|--------------------------|
--1--------3-------------|--0--------1-------------|--1--------3--------------|


  E  E  E  E  S S S S E     E  E  E  S S S S S S E   
--------------------3----|--0-----------------------|
--------0--1------3------|-----3--1--1-------3-1-0--|
--0--0----------0---0-0--|-------------0---0---0-0--|
-------------------------|---------------0----------|
-----------3--3----------|--------------------------|
--0---------------3------|--1--------3--------------|


  E  E  E  S S S S S S S S    E  E  E  S S S S S S E   
--0------------------3-----|--0-----------------------|
-----3--1--1-3-----3---1-3-|-----3--1--1-------3-1-0--|
-----------------0---------|-------------0---0---0-0--|
---------------0-----------|---------------0----------|
---------------------------|--------------------------|
--0--------1---------------|--1--------3--------------|


  E  E  E  E  S S S S E     E  E  E  S S S S S S E     E  E  E  S S S S S S E   
--------------------3----|--0-----------------------|--0------------------3----|
--------0--1------3------|-----3--1--1-------3-1-0--|-----3--1--1-3-----3---3--|
--0--0----------0---0-0--|-------------0---0---0-0--|-----------------0--------|
-------------------------|---------------0----------|---------------0----------|
-----------3--3----------|--------------------------|--------------------------|
--0---------------3------|--1--------3--------------|--0--------1--------------|


  E  E  E  S S S S S S E     E  E  E  E  S S S  S S S    E  E  E  Q    E   
--0-----------------------|---------------------------|--------0----------|
-----3--1--1-------3-1-0--|--------0--1-------------0-|--1--1-----3----1--|
-------------0---0---0-0--|--0--0----------0------0---|-------------------|
---------------0----------|------------------0h-2-----|-------------------|
--------------------------|-----------3--3------------|--0----------------|
--1--------3--------------|--0------------------------|----------------1--|


  E  E  E  Q    Q       E  E  S S S S E  E  E  S S    E  E  E  E  Q    E  S S  
--------3--0---------|------------0----------------|--------------0-----------|
--3--1----------3----|--1-------1---3-------1--1-0-|--1--------1----------1-3-|
---------------------|--------0----------0---------|--------0-----------------|
---------------------|-----0----------0------------|-----2--------------------|
-----------0---------|-----------------------------|--3-----------------------|
--3------------------|--0--------------------------|----------------------0---|


  E  E  E  S S E  S S S S S S    S S E  E  S S E  S S S S S S  
--3-----0---------------------|--------------0----------------|
-----------3-1----------0-1-1-|--3-1-------3------------0-1-3-|
--------2-------------0-------|-----------------------0-------|
-----2---------0----0---------|---------2-----------0---------|
--0---------------------------|------2------------------------|
------------------3-----------|--0-------------1--3-----------|


  E  E  E  S S E  S S S S S S    S S E  E  S S E  S S S S S S  
--3-----0---------------------|-------------------------------|
-----------3-1----------0-1-1-|--3-1-------0-1------------1-3-|
----------------------0-------|---------0-------------3-0-----|
--------3-----------0---------|------0--------------0---------|
-----3------------------------|----------------3--------------|
--1------------3--3-----------|--3----------------3-----------|


  E  E  E  S S E  S S S S S S    S S E  E  S S E  E  E  E   
--3-----0---------------------|--------------0-------------|
-----------3-1----------0-1-1-|--3-1----1--3---------3-----|
--------2-------------0-------|-------------------2-----0--|
-----2---------0----0---------|---------2---------3-----0--|
--0---------------------------|------2---------------------|
------------------3-----------|--0-------------1-----3-----|


  S S Q    E  E  E  E  E     E  E  E  E  H         
--------------------------|-----------------------|
--1-----------0--0--1--1--|--1--1--0--1-----------|
-----------0--------------|--------------0--------|
----3---------------------|--------------2--------|
------3-------------------|--------------3--------|
--1-----------3-----3-----|--1--------------------|


  S S S S E  S S S S S E.  S S    S E  E  E  S E  Q.      
-------------------------------|-------------------------|
----0-2-0----------------------|-------------------------|
----------2--------------------|---------------0---------|
-------------2-2---0-2-2-----0-|----2--0-----0----2------|
--0--------------3---------3---|--0-------3--------------|
-------------------------------|---------------3---------|


  S S S S E  S S S S S E.  S S    S E  E  E  S H         
-------------------------------|------------------------|
----0-2-0----------------------|----1--0-------1--------|
----------2--------0-2-2---0-2-|----------0----0--------|
-------------2-2---------------|-------------2----------|
--3----------------------------|------------------------|
-----------------0-------------|--1------------3--------|


  S S S S S S S E  S S S E  S S    S S S S S S S S E  E  Q     
--------------0-0----0-0--------|----0-------------3--0-------|
----0-2-0----------3--------1-3-|--L-----3---1---3------------|
----------2--------------0------|----------0-------------2----|
----------------2---------------|------0-------0--------------|
--0---------0--------3----------|---------------------2-------|
----------0---------------------|--3---------------0----------|


                                                                   ^          
  S S S S S S S E  S S S S S S S    S S S S S S S S    Q    E  S S Q.     E   
--------------0-0----0-0---------|----0-------------|------------0--------3--|
----0-2-0----------3-------1-1-3-|--3-----3---1---1-|--3---------------------|
----------2--------------0-------|--------------2---|----------2---1---------|
----------------2----------------|------0---3-------|-------2------2---------|
--0---------0--------3-----------|--0---------------|--2-----------2---------|
----------0----------------------|------------------|------------------------|


  E  S  S H.              H.           E  S S    E  S S E  S S E  S S S S S S  
--L--------------------|----------------------|--3----3-0---------------------|
-----1p-0-1------------|------------------1-3-|------------3-1----------0-1-1-|
--L--------------------|----------------------|---------2-------------0-------|
--L--------------------|----------------------|-----2----------0----0---------|
--L--------------------|----------------------|--0----------------------------|
-----------------------|------------------0---|-------------------3-----------|


  S S E  E  S S E  S S S S S S    E  S S E  S S E  S S S S S S  
--------------0----------------|--3----3-0---------------------|
--3-1-------3------------0-1-3-|------------3-1----------0-1-1-|
-----------------------0-------|---------2-------------0-------|
---------2-----------0---------|-----2----------0----0---------|
------2------------------------|--0----------------------------|
--0-------------1--3-----------|-------------------3-----------|


  S S E  E  S S E  S S S S S S    E  S S E  S S E  S S S S S S  
-------------------------------|--3----3-0---------------------|
--3-1-------0-1------------1-3-|------------3-1----------0-1-1-|
---------0-------------3-0-----|---------2-------------0-------|
------0--------------0---------|-----2----------0----0---------|
----------------3--------------|--0----------------------------|
--3----------------3-----------|-------------------3-----------|


  S S E  E  S S E  E  E  E     S S Q    E  E  E  E  E   
--------------0-------------|--------------------------|
--3-1----1--3---------3-----|--1-----------0--0--1--1--|
-------------------2-----0--|-----------0--------------|
---------2---------3-----0--|----3---------------------|
------2---------------------|------3-------------------|
--0-------------1-----3-----|--1-----------3-----3-----|


  E  E  E  E  Q.     S S    E  S S E  S S E  S S S S S S  
-------------------------|--3----3-0---------------------|
--1--1--0--1---------1-3-|------------3-1----------0-1-1-|
-------------------------|---------2-------------0-------|
-------------------------|-----2----------0----0---------|
--------------3----------|--0----------------------------|
--1------------------0---|-------------------3-----------|


  S S E  E  S S E  S S S S S S    E  S S E  S S E  S S S S S S  
--------------0----------------|--3----3-0---------------------|
--3-1-------3------------0-1-3-|------------3-1----------0-1-1-|
-----------------------0-------|---------2-------------0-------|
---------2-----------0---------|-----2----------0----0---------|
------2------------------------|--0----------------------------|
--0-------------1--3-----------|-------------------3-----------|


  S S E  E  S S E  S S S S S S    E  S S E  S S E  S S S S S S  
-------------------------------|--3----3-0---------------------|
--3-1-------0-1------------1-3-|------------3-1----------0-1-1-|
---------0-------------3-0-----|---------2-------------0-------|
------0--------------0---------|-----2----------0----0---------|
----------------3--------------|--0----------------------------|
--3----------------3-----------|-------------------3-----------|


  S S E  E  S S E  E  E  E     S S Q    E  E  E  E  E   
--------------0-------------|--------------------------|
--3-1----1--3---------3-----|--1-----------0--0--1--1--|
-------------------2-----0--|-----------0--------------|
---------2---------3-----0--|----3---------------------|
------2---------------------|------3-------------------|
--0-------------1-----3-----|--1-----------3-----3-----|


  E  E  E  E  E  E  E  E     E  E  E  E  S S S S E     E  E  E  E  S S S S E   
--------------------------|--0--------3-------------|--------------------3----|
--1--1--0--1--------1--3--|-----3--1---------3-1-0--|--3--0-----1------3------|
-----------------0--------|----------------0--------|--------0-------0-----0--|
--------------------------|--------------0----------|--------------0----------|
--------------3-----------|-------------------------|-------------------------|
--1-----------------------|--1--------3-------------|--0--------1-------------|


  E  E  E  E  S S S S E     E  E  E  E  S S S S S S    E  E  E  E  S S S S E   
--0--------3-------------|--------------------------|--0--------3-------------|
-----3--1---------3-1-0--|-----0-----1------3---0-1-|-----3--1---------3-1-0--|
----------------0--------|--0-----0-------0---0-----|----------------0--------|
--------------0----------|--------------------------|--------------0----------|
-------------------------|-----------3--3-----------|-------------------------|
--1--------3-------------|--0---------------3-------|--1--------3-------------|


                                                               ^          
  E  E  E  E  S S S S E     E  E  E  E  S S S S E     E  E  E  H          
--------------------3----|--0--------3-------------|-----------0--------||
--3--0-----1------3------|-----3--1---------3-1-0--|-----0-----1--------||
--------0-------0-----0--|----------------0--------|--0-----0--0--------||
--------------0----------|--------------0----------|-----------2--------||
-------------------------|-------------------------|-----------3--------||
--0--------1-------------|--1--------3-------------|--0-----------------||




Duration Legend
---------------
W - whole
H - half
Q - quarter
E - 8th
S - 16th
T - 32nd
X - 64th
. - note dotted
|-n-|  - n-tuplets


Tablature Legend
----------------
L - tied note
x - dead note
g - grace note
(n) - ghost note
> - accentuded note
NH - natural harmonic
AH - artificial harmonic
TH - tapped harmonic
SH - semi harmonic
PH - pitch harmonic
h - hammer on
p - pull off
b - bend
S - shift slide
s - legato slide
/ -  slide into from below or out of upwards
\ -  slide into from above or out of downwards
~ - vibrato
W - wide vibrato
tr - trill
TP - tremolo picking
T - tapping
S - slap
P - pop
< - fade in
^ - brush up
v - brush down
Login or Register to remove this ad.