Ads

In the City of Constant Rain (Little Busters!) Guitar Tab

Submitted: Sep 07, 2013 by scarecrowlol (Last updated: Sep 12, 2013)

5
Average: 5 (5 votes)
Download | Listen
Game: Little Busters!
Composer(s): Jun Maeda, PMMK, Manack, Shinji Orito, Magome Togoshi
Style: Arrangement, Fingerstyle, Pinch harmonics

This song is also called In the Town of Incessant Rain / 降り続く雨の街で

AutoScroll: Slow | Medium | Fast
Title: In the City of Constant Rain, (In the Town of Incessant Rain)
SubTitle: Little Busters!
Artist: Manabu Miwa (Manack)
Tabber: Mitch Jackson
Tempo = 108
T/S = 3/4


     H           Q          E  E  E  E  Q          Q     Q     Q          H.                   
D |----------------------|--------6--8--10------|--8-----------5L------|--L-------------------|
A |----------------------|--8--10---------------|--8----<6>------------|----------------------|
E |--------------8-------|----------------------|----------------------|----------------------|
C |----------------------|----------------------|--0-------------------|----------------------|
G |----------------------|--6-------------------|----------------------|----------------------|
C |----------------------|----------------------|----------------------|----------------------|

                                                
     H           Q          E  E  E  E  Q          Q     Q     Q          H.
  |--L-------------------|--------6--8--10------|--8-----------5L------|--L-------------------|
  |----------------------|--8--10---------------|--8-----6-------------|----------------------|
  |--------------8-------|----------------------|----------------------|----------------------|
  |----------------------|----------------------|--0-------------------|----------------------|
  |----------------------|--6-------------------|----------------------|----------------------|
  |----------------------|----------------------|----------------------|----------------------|


     H           Q          E  E  E  E  Q          Q     Q     Q          Q     H      
  |--L-------------------|--------6--8--10------|--8-----------5-------|--------8-------------|
  |----------------------|--8--10---------------|--8----<6>------------|--8-------------------|
  |--------------8-------|----------------------|----------------------|--10------------------|
  |----------------------|----------------------|--0-------------------|----------------------|
  |----------------------|--6-------------------|----------------------|----------------------|
  |----------------------|----------------------|----------------------|--10------------------|

         
     Q     Q     Q          H           Q          E  E  E  E  Q          Q     Q     Q        
  |-------<8>L---L-------|--L-------------------|--------6--8--10------|--8-----------5L------|
  |-<8>------------------|----------------------|--8--10---------------|--8----<6>------------|
  |----------------------|--------------8-------|----------------------|----------------------|
  |----------------------|----------------------|----------------------|--0-------------------|
  |----------------------|----------------------|--6-------------------|----------------------|
  |----------------------|----------------------|----------------------|----------------------|


     H.                     H           Q          E  E  E  E  Q          Q     Q     Q        
  |--L-------------------|--L-------------------|--------6--8--10------|--8-----------5L------|
  |----------------------|----------------------|--8--10---------------|--8-----6-------------|
  |----------------------|--------------8-------|----------------------|----------------------|
  |----------------------|----------------------|----------------------|--0-------------------|
  |----------------------|----------------------|--6-------------------|----------------------|
  |----------------------|----------------------|----------------------|----------------------|


     H.                     H           Q          E  E  E  E  Q          Q     Q     Q        
  |--L-------------------|--L-------------------|--------6--8--10------|--8-----------5-------|
  |----------------------|----------------------|--8--10---------------|--8----<6>------------|
  |----------------------|--------------8-------|----------------------|----------------------|
  |----------------------|----------------------|----------------------|--0-------------------|
  |----------------------|----------------------|--6-------------------|----------------------|
  |----------------------|----------------------|----------------------|----------------------|

    
     Q     Q     Q          Q     Q     Q          H           Q          H           E  E     
  |--6-----3-------------|--8-------------------|--------------8-------|--8-----------7--8----|
  |--4----------<3>------|--------10------------|--8-------------------|----------------------|
  |----------------------|--11----------11------|--6-------------------|----------------------|
  |----------------------|----------------------|----------------------|----------------------|
  |--3-------------------|----------------------|----------------------|----------------------|
  |----------------------|--8-------------------|--6-------------------|----------------------|


     H.                     H           Q          E  E  E  E  E  E       E  E  E  E  E  E     
  |--10------------------|----------------------|----------------------|--------1-------------|
  |--8-------------------|--7-------------------|--3--------------1----|--3-----------4-------|
  |----------------------|--------------1-------|--------1--3--4-------|-----------1----------|
  |--0-------------------|----------------------|--------1-----1-------|--------1-----1-------|
  |----------------------|----------------------|-----1-----------1----|-----1-----------1----|
  |----------------------|----------------------|--1-------------------|--1-------------------|

                                
     E  E  E  E  E  E       E  E  E  E  E  E       E  E  E  E  E  E       E  E  E  E  E  E     
  |----------------------|----------------------|----------------------|--------1-------------|
  |--3-------------------|--------------3-------|--1-------------------|--1-------------------|
  |--------3--1--4-------|--1--------1----------|-----------1--3--4----|--------------4-------|
  |--------1-----1-------|--------1-----1-------|--------3--3-----0----|--------0--3-----0----|
  |-----1-----------1----|-----1-----------1----|-----0----------------|-----0----------------|
  |--1-------------------|--1-------------------|--0-------------------|--0-------------------|

              
     E  E  E  E  E  E       E  E  E  E  E  E       E  E  E  E  E  E       E  E  Q     Q        
  |----------------------|--1-------------------|--3--1-----1--3-------|--3-------------------|
  |----------------------|----------------------|--------4-------------|----------------------|
  |--3-----------3-------|--------------3-------|--------1--------1----|--------3-----4-------|
  |--------0--3-----0----|--------0--3-----0----|-----1----------------|-----1----------------|
  |-----0----------------|-----0----------------|--3-------------------|--3-------------------|
  |--0-------------------|--0-------------------|----------------------|----------------------|

                                                                     
     E  E  E  E  E  E       E  E  Q     Q          E  E  E  E  E  E       E  E  E  E  E  E     
  |----------------------|----------------------|----------------------|--------1-------------|
  |--3--------3--4-------|----------------------|--3--1--3--1--3-------|-----------1--4-------|
  |--------1--------1----|--1-----3-----4-------|--------4--------4----|--------4--------4----|
  |-----1----------------|-----1----------------|-----3----------------|-----3----------------|
  |--3-------------------|--3-------------------|--1-------------------|--1-------------------|
  |----------------------|----------------------|----------------------|----------------------|

                                
     E  E  E  E  E  E       E  E  E  E  E  E       E  E  E  E  E  E       E  E  E  E  E  E     
  |----------------------|----------------------|----------------------|--------1-------------|
  |--3--------1--3-------|-----------1--3-------|--3--------------1----|--3-----------4-------|
  |--------4--------4----|--------4--------4----|--------1--3--4-------|-----------1----------|
  |-----3----------------|-----3----------------|--------1-----1-------|--------1-----1-------|
  |--1-------------------|--1-------------------|-----1-----------1----|-----1-----------1----|
  |----------------------|----------------------|--1-------------------|--1-------------------|

       
     E  E  E  E  E  E       E  E  E  E  E  E       E  E  E  E  E  E       E  E  E  E  E  E     
  |----------------------|----------------------|----------------------|--------1-------------|
  |--3-------------------|--------------3-------|--1-------------------|--1-------------------|
  |--------3--1--4-------|--1--------1----------|-----------1--3--4----|--------------4-------|
  |--------1-----1-------|--------1-----1-------|--------3--3-----0----|--------0--3-----0----|
  |-----1-----------1----|-----1-----------1----|-----0----------------|-----0----------------|
  |--1-------------------|--1-------------------|--0-------------------|--0-------------------|

                                                                     
     E  E  E  E  E  E       E  E  E  E  E  E       E  E  E  E  E  E       E  E  Q     Q        
  |----------------------|--1-------------------|--8-----------4--6----|--8-------------------|
  |----------------------|----------------------|--------6--8----------|--------4-------------|
  |--3-----------3-------|--------------3-------|----------------------|--------------7-------|
  |--------0--3-----0----|--------0--3-----0----|-----6----------------|-----6----------------|
  |-----0----------------|-----0----------------|--4-------------------|--4-------------------|
  |--0-------------------|--0-------------------|----------------------|----------------------|

                            
     E  E  Q     Q          E  E  E  E  E  E       E  E  E  E  E  E       Q     Q     Q        
  |----------------------|--4-----------6-------|----------------------|----------------------|
  |--------6-----8-------|-----------4----------|--13-------------13---|----------------------|
  |--6-------------------|--------7-------------|-----------11-13------|--11----13----11------|
  |-----6----------------|-----6-----------6----|--------10------------|----------------------|
  |--4-------------------|--4-------------------|-----10---------------|----------------------|
  |----------------------|----------------------|--10------------------|----------------------|

  |-------RALL------> 85BPM             108BPM
     ^                      FERMATA  
     E  E  E  E  E  E       H           Q          E  E  E  E  Q          Q     Q     Q        
  |--12------------------|--12------------------|--------6--8--10------|--8-----------5L------|
  |--13-------------13---|----------------------|--8--10---------------|--8----<6>------------|
  |--13-------10-13------|--------------8-------|----------------------|----------------------|
  |--10----10------------|----------------------|----------------------|--0-------------------|
  |--10-10---------------|----------------------|--6-------------------|----------------------|
  |--10------------------|----------------------|----------------------|----------------------|

       
     H.                     H           Q          E  E  E  E  Q          Q     Q     Q        
  |--L-------------------|--L-------------------|--------6--8--10------|--8-----------5L------|
  |----------------------|----------------------|--8--10---------------|--8-----6-------------|
  |----------------------|--------------8-------|----------------------|----------------------|
  |----------------------|----------------------|----------------------|--0-------------------|
  |----------------------|----------------------|--6-------------------|----------------------|
  |----------------------|----------------------|----------------------|----------------------|

              
     H.                     H           Q          E  E  E  E  E          Q     Q     Q        
  |--L-------------------|--L-------------------|--------6--8--10------|--8-----------5-------|
  |----------------------|----------------------|--8--10---------------|--8----<6>------------|
  |----------------------|--------------8-------|----------------------|----------------------|
  |----------------------|----------------------|----------------------|--0-------------------|
  |----------------------|----------------------|--6-------------------|----------------------|
  |----------------------|----------------------|----------------------|----------------------|


     Q     H                Q     Q     Q          H           Q          E  E  E  E  Q        
  |--------8-------------|-------<8>L---L-------|--L-------------------|--------6--8--10------|
  |--8-------------------|-<8>------------------|----------------------|--8--10---------------|
  |--10------------------|----------------------|--------------8-------|----------------------|
  |----------------------|----------------------|----------------------|----------------------|
  |----------------------|----------------------|----------------------|--6-------------------|
  |--10------------------|----------------------|----------------------|----------------------|

    
     Q     Q     Q          H.                     H           Q          E  E  E  E  Q        
  |--8-----------5L------|--L-------------------|--L-------------------|--------6--8--10------|
  |--8----<6>------------|----------------------|----------------------|--8--10---------------|
  |----------------------|----------------------|--------------8-------|----------------------|
  |--0-------------------|----------------------|----------------------|----------------------|
  |----------------------|----------------------|----------------------|--6-------------------|
  |----------------------|----------------------|----------------------|----------------------|

  
     Q     Q     Q          H.                     H           Q          E  E  E  E  Q        
  |--8-----------5L------|--L-------------------|--L-------------------|--------6--8--10------|
  |--8-----6-------------|----------------------|----------------------|--8--10---------------|
  |----------------------|----------------------|--------------8-------|----------------------|
  |--0-------------------|----------------------|----------------------|----------------------|
  |----------------------|----------------------|----------------------|--6-------------------|
  |----------------------|----------------------|----------------------|----------------------|

    
     Q     Q     Q          Q     Q     Q          Q     Q     Q          H           Q        
  |--8-----------5-------|--6-----3-------------|--8-------------------|--------------8-------|
  |--8----<6>------------|--4----------<3>------|--------10------------|--8-------------------|
  |----------------------|----------------------|--11----------11------|--6-------------------|
  |--0-------------------|----------------------|----------------------|----------------------|
  |----------------------|--3-------------------|----------------------|----------------------|
  |----------------------|----------------------|--8-------------------|--6-------------------|

                 RALL 90BPM                     |----RALL----> 80BPM
                            ^
     H           E  E       E  E  E  E  Q          E  E  E  E  Q          H.                    
  |--8-----------7--8----|--10------------------|-----5--7--10-15L-----|--L-------------------||
  |----------------------|--8-------------------|--8-------------------|----------------------||
  |----------------------|--------------5-------|----------------------|----------------------||
  |----------------------|--------5--7----------|----------------------|----------------------||
  |----------------------|--5--5----------------|----------------------|----------------------||
  |----------------------|----------------------|----------------------|----------------------||

Login or Register to remove this ad.

2 comments on In the City of Constant Rain

Little Busters

5

Little Busters tab? That's awesome! It's my favourite visual novel by Key.
I don't recall the soundtrack being quite as memorable as it was in Clannad for example, but there was some really great tracks in it.

Its definitely my fav from

Its definitely my fav from key too! i haven't played the visual novel yet but intend to after i finish the anime adaption. I cannot get enough of this song since i first heard it during Nishizono's arc, truly a touching piece. Definitely going to work on a few more tabs from the OST soon.