Alicemagic (Little Busters!) Guitar Tab

Submitted: Oct 26, 2013 by corntastic

2.333335
Average: 2.3 (3 votes)
Download | Listen
Game: Little Busters!
Composer(s): Jun Maeda, PMMK, Manack, Shinji Orito, Magome Togoshi
Style: Transcription

AutoScroll: Slow | Medium | Fast
Alicemagic
Little Busters
Jun Maeda, Rita
corntastic
23 10 2013


e-------------------------------------------------------------------------
B-------------------------------------------------------------------------
G--6----6--6--6-7--6-------6----6--6--6-6---------------------------------
D-----9---------------9-------9---------------7--9------------------------
A------------------------------------------9------------------------------
E-------------------------------------------------------------------------

e-------------------------------------------------------------------------
B-------------------------------------------------------------------------
G-------6----6------------------------------------------------------------
D--7--9--------9--7--9-----6-7--------------------------------------------
A------------------------9------------------------------------------------
E-------------------------------------------------------------------------

e-------------------------------------------------------------------------
B-------------------------------------------------------------------------
G--6----6--6--6-7--6-------6----6--6--6-6---------------------------------
D-----9---------------9-------9---------------7--9------------------------
A------------------------------------------9------------------------------
E-------------------------------------------------------------------------

e-------------------------------------------------------------------------
B---------------------9--10--9-7---7--------------------------------------
G-------6----6-----9-------------9----------------------------------------
D--7--9---------9---------------------------------------------------------
A-------------------------------------------------------------------------
E-------------------------------------------------------------------------

______________________________________________________________________________________


e-------------------------------------------------------------------------
B--------------------------7--------7-------------------------------------
G--6-7-9----9--9--7-6--7-9---9----6----9-7-6--9-9--7-------9-7-9--7-------
D-----------------------------------------------------7--------------7----
A-------------------------------------------------------------------------
E-------------------------------------------------------------------------


e-------------------------------------------------------------------------
B-------------------------------------------------------------------------
G------6----6--6---------6--6----6--7-6------6---------7--6--------9------
D--7-9------------9-7--9----------------9--9---7-------------9--7---------
A---------------------------------------------------9---------------------
E-------------------------------------------------------------------------

______________________________________________________________________________________


e----------------------7--------------------------------------------------
B--7-9-10--10-10-9-10----10----7------------------------------------------
G----------------------------9---9----------------------------------------
D-------------------------------------------------------------------------
A-------------------------------------------------------------------------
E-------------------------------------------------------------------------

e------------------7-----7-9-9--------------------------------------------
B--10--10-10-9-10----10---------------------------------------------------
G-------------------------------------------------------------------------
D-------------------------------------------------------------------------
A-------------------------------------------------------------------------
E-------------------------------------------------------------------------

e------------------7-------------------------7-9--------------------------
B--10--10-10-9-10----10--10--------9--9--10-------------------------------
G---------------------------9--10-----------------------------------------
D-------------------------------------------------------------------------
A-------------------------------------------------------------------------
E-------------------------------------------------------------------------

e----------------------7--------------------------------------------------
B--7-9-10--10-10-9-10----10----7------------------------------------------
G----------------------------9---9----------------------------------------
D-------------------------------------------------------------------------
A-------------------------------------------------------------------------
E-------------------------------------------------------------------------

e------------------7-----7-9-9--------------------------------------------
B--10--10-10-9-10----10---------------------------------------------------
G-------------------------------------------------------------------------
D-------------------------------------------------------------------------
A-------------------------------------------------------------------------
E-------------------------------------------------------------------------

e--9-7-------7------------------------------------------------------------
B---------10---9----9---9----10-9-7---------------------------------------
G---------------------9---------------------------------------------------
D-------------------------------------------------------------------------
A-------------------------------------------------------------------------
E-------------------------------------------------------------------------
Login or Register to remove this ad.