Login or Register to remove this ad.

Brokentooth March (Lisa) Guitar Tab

Submitted: Sep 02, 2017 by Furious_Fries

5
Average: 5 (1 vote)
Download | Listen
Game: Lisa
Composer(s): Austin Jorgensen
Style: Arrangement, Fingerstyle, Percussion

AutoScroll: Slow | Medium | Fast
Brokentooth March
LISA the Joyful
Composed by: Austin Jorgensen
Arranged by: Sebastian Handley
2017-09-91

Drop D Tuning

     E   E   E   E   E   E   E   E     E   E   E   E   E   E   E   E      E   E   E   E   E   E   E   E
E||--5-------5-------5---7---8-------|---------------------------------||-5-------5-------5---7---8-------|
B||----------------------------------|---------------------5---6-------||---------------------------------|
G||*---------------------------------|-7-------7-------7--------------*||---------------------------------|
D||*---------------------------------|--------------------------------*||---------------------------------|
A||----------------------------------|---------------------------------||---------------------------------|
D||----------------------------------|---------------------------------||-x-----------x-------x-----------|

 E   E   E   E   E   E   S  E   S    E   E   E   E   E   E   E   E     E   E   E   E   E   E   S  E   S 
-----------------------------------|-5-------5-------5---7---8-------|-----------------------------------|
---------------------5---6---------|---------------------------------|---------------------5---6---------|
-7-------7-------7-----------------|---------------------------------|-7-------7-------7-----------------|
-----------------------------------|---------------------------------|-----------------------------------|
-----------------------------------|---------------------------------|-----------------------------------|
-x-----------x-------x------x------|-x-----------x-------x-----------|-x-----------x-------x------x---x--|

 E   E   E   E   E   E   E   S  S    E   E   E   E   E   E   E   S  S    E   E   E   E   E   E   E   S  S
-5-------5-------5---7---8---------|---------------------0-------------|-5-------5-------5---7---8---------|
-----------------------------------|-------------------------6---------|-----------------------------------|
-----------------------------------|-7-------7-------7-----------------|-----------------------------------|
-0-------7---0-------7-------------|---------0-----------0-------------|-0-------7---0-------7-------3-----|
-------------------------7---8--7--|-8---7-------8---7-------8---7--8--|-------------------------7---0--7--|
-0-------x---0-------0-------x-----|-0-------x---0-------0-------x-----|-0-------x---0-------0-------x-----|

 E   E   E   E   E   E   E   S  S    E   S  S  E   E   S  S  E   E   S  S    E   S  S  E   E   S  S  E   E   S  S
---------------------0-------------|-5---------5-------5-----7---8---------|-------------------------0-------------|
-------------------------6---------|---------------------------------------|-----------------------------6---------|
-7-------7-------7-----------------|---------------------------------------|-7---------7-------7-------------------|
-0-------0---0-------0---0------0--|-0---------7---0---------7-------------|-0---------0---0---------0-------------|
-----4-----------4-----------7-----|-0-------------0---------0---7---8--7--|-8---7---------8---7-----0---8---7--8--|
-0-------x---0-----------x---------|-0------x--x---0------x--0-------x--x--|-0------x--x---0------x--0-------x--x--|

 E   S  S  E   E   S  S  E   E   S  S    E   E   E   E   E   E   E   S  S    E   E   E   E   E   E   E   E
-5---------5-------5-----7---8---------|---------------------0-------------|---------------------------------|
---------------------------------------|-------------------------6---------|---------------------------------|
---------------------------------------|-7-------7-------7-----------------|-----------------0---------------|
-0---------7---0---------7-------0-----|-0-------0---0-------0---0------0--|-0-------7-----------------------|
-0-------------0---------0---7---3--7--|-0---4-----------4-----------7-----|---------------------8---7-------|
-0------x--x---0------x--0-------x--x--|-0-------x---------------x---------|-0-------x---0-------0---x-------|

 E   E   E   E   E   E   E   E     E   E   E   E   E   E   E   E     E   E   E   E   E   E   E   E
---------------------------------|---------------------------------|---------------------------------|
---------------------------------|---------------------------------|---------------------------------|
---------------------------------|-----------------0---------------|---------------------------------|
---------0-------0---------------|-0-------7-----------------------|-0-------0---------------0-------|
-8---7-------4-------7---8-------|---------------------8---7-------|-----4-------7---8---7-------0---|
-0-------x---0-------0---x---3---|-0-------x---0-------0---x-------|-0-------x---0-------0---x-------|

 S  S   E   S  S  S  S  E   S  S  E   S  S    S  S  E   S  S  S  S  E   E   E   S  S
--------------------------------------------|-----------------------------------------|
--------------------------------------------|-----------------------------------------|
------------------------0-------------------|-----------------------------------------|
-0----------7-------------------------------|-----------0-----------0-----------------|
----------------------------8-----7---------|-8-----7---------4---------7---8---------|
-0--0-------x--x--0--0----------------x--x--|-0--0------x--x--0--0------7-------x--x--|

 S  S   E   S  S  S  S  E   E   E   S  S    S  S  E   S  S  S  S  E   E   E   S  S
------------------------------------------|-----------------------------------------|
------------------------------------------|-----------------------------------------|
------------------------0-----------------|-----------------------------------------|
-0----------7-----------------------------|-0---------0-------------------0---------|
----------------------------8---7---------|-------4---------7-----8---7-------------|
-0--0-------x--x--0--0--------------x--x--|-0--0------x--x--0--0------7-------x-----|

 E   E   E   E   E   E   E   S  S    E   E   E   E   E   E   E   S  S    E   E   E   E   E   E   E   S  S
-5-------5-------5---7---8---------|---------------------0-------------|-5-------5-------5---7---8---------|
-----------------------------------|-------------------------6---------|-----------------------------------|
-----------------------------------|-7-------7-------7-----------------|-----------------------------------|
-0-------7---0-------7-------------|---------0-----------0-------------|-0-------7---0-------7-------3-----|
-------------------------7---8--7--|-8---7-------8---7-------8---7--8--|-------------------------7---0--7--|
-0-------x---0-------0-------x-----|-0-------x---0-------0-------x-----|-0-------x---0-------0-------x-----|

 E   E   E   E   E   E   E   S  S    E   S  S  S   E   E  S  E   E   S  S    E   S  S  E   E   S  S  E   E   S  S
---------------------0-------------|-5---------5-------5-----7---8---------|-------------------------0-------------|
-------------------------6---------|---------------------------------------|-----------------------------6---------|
-7-------7-------7-----------------|---------------------------------------|-7---------7-------7-------------------|
-0-------0---0-------0---0------0--|-0---------7---0---------7-------------|-0---------0---0---------0-------------|
-----4-----------4-----------7-----|-0-------------0---------0---7---8--7--|-8---7---------8---7-----0---8---7--8--|
-0-------x---0-----------x---------|-0------x--x---0------x--0-------x--x--|-0------x--x---0------x--0-------x--x--|

 E   S  S  E   E   S  S  E   E   S  S    E   E   E   E   E   E   E   S  S    E   E   E   E   E   E   E   E
-5---------5-------5-----7---8---------|---------------------0-------------|---------------------------------|
---------------------------------------|-------------------------6---------|---------------------------------|
---------------------------------------|-7-------7-------7-----------------|-----------------0---------------|
-0---------7---0---------7-------3--2--|-0-------0---0-------0---0------0--|-0-------7-----------------------|
-0-------------0---------0---7---0-----|-0---4-----------4-----------7-----|---------------------8---7-------|
-0------x--x---0------x--0-------x-----|-0-------x---------------x---------|-0-------x---0-------0---x-------|

 E   E   E   E   E   E   E   E     E   E   E   E   E   E   E   E     E   E   E   E   E   E   E   E
---------------------------------|---------------------------------|---------------------------------|
---------------------------------|---------------------------------|---------------------------------|
---------------------------------|-----------------0---------------|---------------------------------|
---------0-------0---------------|-0-------7-----------------------|-0-------0---------------0-------|
-8---7-------4-------7---8-------|---------------------8---7-------|-----4-------7---8---7-------0---|
-0-------x---0-------0---x---3---|-0-------x---0-------0---x-------|-0-------x---0-------0---x-------|

   E   S  S  E   E   S  S  S  S  E   S  S    E   S  S  E   E   S  S  E   E   S  S
E|-----------------------------------------|---------------------------------------|
B|-----------------------------------------|---------------------------------------|
G|-------------------0---------------------|---------------------------------------|
D|-0---------7-----------------------------|-----------0-------0-------------------|
A|-------------------------8-----7---------|-8---7---------4---------7---8---------|
D|-0---x--x--x---0---x--x--x---------x--x--|-0---x--x--x---0---x--x--7-------x--x--|

 E   S  S  E   E   S  S  E   E   S  S    E   E   E   E   E   E   E   E     E   S  S  E   E   S  S  S  S  E   S  S
---------------------------------------|---------------------------------|-----------------------------------------|
---------------------------------------|---------------------------------|-----------------------------------------|
-------------------0-------------------|---------------------------------|-------------------0---------------------|
-0---------7---0-----------------------|-0-------0---------------0-------|-0---------7---0-------------------------|
-------------------------8---7---------|-----4-------7---8---7-----------|-0-------------0---------8-----7---------|
-0---x--x--x---0---x--x--x-------x--x--|-0-------x---0-------7---x-------|-0------x--x---0------x--x---------x--x--|

 E   S  S  S  S  E   S  S  E   E   S  S    E   S  S  S  S  E   S  S  E   E   S  S
-----------------------------------------|-----------------------------------------|
-----------------------------------------|-----------------------------------------|
-----------------------------------------|---------------------0-------------------|
-0---------0-----0---0-------------------|-0---------7-----0-----------------------|
-8---7-----------4---------7---8---------|-0---------------0---------8---7---------|
-0------x--x-----0------x--7-------x--x--|-0------x--x-----0------x--x-------x--x--|

 E   E   E   E   E   E   E       W
------------------------------|----------|
-------------------------3----|-(3)------|
-------------------------2----|-(2)------|
-0-------0---------------0----|-(0)------|
-----4-------7---8---7---0----|-(0)------|
---------x---------------0----|-(0)------|

Duration Legend
---------------
W - whole
H - half
Q - quarter
E - 8th
S - 16th

Tablature Legend
----------------
x - percussive slap
Login or Register to remove this ad.