Ads

Main Theme (Life Is Strange) Guitar Tab

Submitted: Sep 25, 2015 by DOLKINS (Last updated: Sep 27, 2015)

5
Average: 5 (2 votes)
Download | Listen
Game: Life Is Strange
Composer(s): Jonathan Morali
Style: 2 or more instruments

AutoScroll: Slow | Medium | Fast
Title: Life is Strange
SubTitle: Main Theme
Artist: Jonathan Morali
Tempo = 110

Tutorial + cover : https://www.youtube.com/watch?v=EbCQP_8UGs4

guitare 1


E |----------------------------|----------------------------|
B |-----1--------1-------------|-----1--------1-------------|
G |--------2--------2-----0----|--------0--------0-----0----|
D |-----------2--------2-------|-----------2--------2-------|
A |--0-------------------------|--3-------------------------|
E |----------------------------|----------------------------|


----------------------------|----------------------------|
-----1--------1-------------|-----0--------0-------------|
--------2--------2-----0----|--------0--------0-----0----|
-----------3--------3-------|-----------2--------2-------|
----------------------------|----------------------------|
--1-------------------------|--0-------------------------|


----------------------------|----------------------------|
-----1--------1-------------|-----1--------1-------------|
--------0--------0-----0----|--------2--------2-----0----|
-----------2--------2-------|-----------2--------2-------|
--3-------------------------|--0-------------------------|
----------------------------|----------------------------|


----------------------------|----------------------------||
-----1--------1-------------|-----1--------1-------------||
--------0--------0-----0----|--------2--------2-----0----||
-----------2--------2-------|-----------3--------3-------||
--3-------------------------|----------------------------||
----------------------------|--1-------------------------||


guitare 2


E |----------------|----------------|----------------|----------------|
B |----------------|----------------|----------------|----------------|
G |--5--5--5--4----|--5--5--5--4----|--5--5--5--5----|--4--4--4--4----|
D |----------------|----------------|----------------|----------------|
A |----------------|----------------|----------------|----------------|
E |----------------|----------------|----------------|----------------|


----------------|----------------|----------------|----------------||
----------------|----------------|----------------|----------------||
--5--5--5--4----|--5--5--5--4----|--5--5--5--5----|--5--5--5--5----||
----------------|----------------|----------------|----------------||
----------------|----------------|----------------|----------------||
----------------|----------------|----------------|----------------||
 
guitare 3 



E |----------------------------|----------------------------|
B |-----6-----6-----6-----6----|-----8-----8-----8-----8----|
G |--9-----9-----9-----9-------|--9-----9-----9-----9-------|
D |----------------------------|----------------------------|
A |----------------------------|----------------------------|
E |----------------------------|----------------------------|


----------------------------|----------------------------|
-----6-----6-----6-----6----|-----8-----8-----8-----8----|
--9-----9-----9-----9-------|--9-----9-----9-----9-------|
----------------------------|----------------------------|
----------------------------|----------------------------|
----------------------------|----------------------------|


----------------------------|----------------------------|
-----6-----6-----6-----6----|-----10----10----10----10---|
--9-----9-----9-----9-------|--9-----9-----9-----9-------|
----------------------------|----------------------------|
----------------------------|----------------------------|
----------------------------|----------------------------|


----------------------------|----------------------------||
-----6-----6-----6-----6----|-----10----10----10----10---||
--9-----9-----9-----9-------|--9-----9-----9-----9-------||
----------------------------|----------------------------||
----------------------------|----------------------------||
----------------------------|----------------------------||




Login or Register to remove this ad.

1 comment on Main Theme

Life is Strange "Main Theme"

Life is Strange "Main Theme" Tuto Guitare

https://youtu.be/EbCQP_8UGs4