Ads

Blackwell Academy Fountain (Life Is Strange) Guitar Tab

Submitted: Mar 07, 2017 by diner777g (Last updated: Mar 16, 2017)

5
Average: 5 (1 vote)
Download | Listen
Game: Life Is Strange
Composer(s): Jonathan Morali
Style: Alternate picking, Fingerstyle, Transcription

AutoScroll: Slow | Medium | Fast
Blackwell Academy Fountain
Life Is Strange
Tabber: diner777g
Created 3/7/2017

Easy song. Standard Tuning. The note pattern is essentially:
Am, C, F, Em, C, Am, C, F.


e|--------------------------------|--------------------------------
B|----1-----------1---------------|----1-----------1---------------
G|--------2-----------2-------0---|--------0-----------0-------0---
D|------------2-----------2-------|------------2-----------2-------
A|0-------------------------------|3-------------------------------
E|--------------------------------|--------------------------------

e|--------------------------------|--------------------------------
B|----1-----------1---------------|----0-----------0---------------
G|--------2-----------2-------0---|--------0-----------0-------0---
D|------------3-----------3-------|------------2-----------2-------
A|3-------------------------------|2-------------------------------
E|--------------------------------|--------------------------------

e|--------------------------------|--------------------------------
B|----1-----------1---------------|----1-----------1---------------
G|--------0-----------0-------0---|--------2-----------2-------0---
D|------------2-----------2-------|------------2-----------2-------
A|3-------------------------------|0-------------------------------
E|--------------------------------|--------------------------------

e|--------------------------------|--------------------------------
B|----1-----------1---------------|----1-----------1---------------
G|--------0-----------0-------0---|--------2-----------2-------0---
D|------------2-----------2-------|------------3-----------3-------
A|3-------------------------------|3-------------------------------
E|--------------------------------|--------------------------------

e|--------------------------------|--------------------------------
B|----1-----------1---------------|----1-----------1---------------
G|--------2-----------2-------0---|--------0-----------0-------0---
D|------------2-----------2-------|------------2-----------2-------
A|0-------------------------------|3-------------------------------
E|--------------------------------|--------------------------------

e|--------------------------------|--------------------------------
B|----1-----------1---------------|----0-----------0---------------
G|--------2-----------2-------0---|--------0-----------0-------0---
D|------------3-----------3-------|------------2-----------2-------
A|--------------------------------|--------------------------------
E|1-------------------------------|0-------------------------------

e|--------------------------------|--------------------------------
B|----1-----------1---------------|----1-----------1---------------
G|--------0-----------0-------0---|--------2-----------2-------0---
D|------------2-----------2-------|------------2-----------2-------
A|3-------------------------------|0-------------------------------
E|--------------------------------|--------------------------------

e|--------------------------------|--------------------------------
B|----1-----------1---------------|----1-----------1---------------
G|--------0-----------0-------0---|--------2-----------2-------0---
D|------------2-----------2-------|------------3-----------3-------
A|3-------------------------------|--------------------------------
E|--------------------------------|1-------------------------------

e|--------------------------------|--------------------------------
B|----1-----------1---------------|----1-----------1---------------
G|--------2-----------2-------0---|--------0-----------0-------0---
D|------------2-----------2-------|------------2-----------2-------
A|0-------------------------------|3-------------------------------
E|--------------------------------|--------------------------------

e|--------------------------------|--------------------------------
B|----1-----------1---------------|----0-----------0---------------
G|--------2-----------2-------0---|--------0-----------0-------0---
D|------------3-----------3-------|------------2-----------2-------
A|--------------------------------|--------------------------------
E|1-------------------------------|0-------------------------------

e|--------------------------------|--------------------------------
B|----1-----------1---------------|----1-----------1---------------
G|--------0-----------0-------0---|--------2-----------2-------0---
D|------------2-----------2-------|------------2-----------2-------
A|3-------------------------------|0-------------------------------
E|--------------------------------|--------------------------------

e|--------------------------------|--------------------------------
B|----1-----------1---------------|----1-----------1---------------
G|--------0-----------0-------0---|--------2-----------2-------0---
D|------------2-----------2-------|------------3-----------3-------
A|3-------------------------------|--------------------------------
E|--------------------------------|1-------------------------------

e|--------------------------------|--------------------------------
B|----1-----------1---------------|----1-----------1---------------
G|--------2-----------2-------0---|--------0-----------0-------0---
D|------------2-----------2-------|------------0-----------0-------
A|0-------------------------------|--------------------------------
E|--------------------------------|3-------------------------------

e|--------------------------------|--------------------------------
B|----1-----------1---------------|----0-----------0---------------
G|--------2-----------2-------0---|--------0-----------0-------0---
D|------------3-----------3-------|------------2-----------2-------
A|3-------------------------------|--------------------------------
E|--------------------------------|0-------------------------------

Login or Register to remove this ad.

1 comment on Blackwell Academy Fountain

Sounds good

5

Sounds good