Ads

Memories of Sera (Life Is Strange: Before The Storm) Guitar Tab

Submitted: Jun 22, 2018 by diner777g

5
Average: 5 (1 vote)
Download | Listen
Game: Life Is Strange: Before The Storm
Composer(s): Daughter
Style: Fingerstyle, Transcription
Series: Life Is Strange

AutoScroll: Slow | Medium | Fast
Memories of Sera
Life is Strange: Before the Storm
Tabber: diner777g
Created 3-6-2018

     W                   W                   W                   W                 
E||-------------------|-------------------|-------------------|-------------------|
B||-------------------|-------------------|-------------------|-------------------|
G||--2----------------|-------------------|-------------------|-------------------|
D||-------------------|--3----------------|-------------------|-------------------|
A||-------------------|-------------------|--3----------------|--5----------------|
E||-------------------|-------------------|-------------------|-------------------|


  Q    H.              Q    H.              H.           E.  S    W                 
-------0------------|--------------------|---------------------|-------------------|
--------------------|-------1------------|---------------------|-------------------|
--2-----------------|--------------------|--0------------L---2-|--4----------------|
--------------------|--3-----------------|---------------------|-------------------|
--------------------|--------------------|--3------------L-----|--5----------------|
--------------------|--------------------|---------------------|-------------------|


  Q    H.              Q    H.              H.           E.  S    W                 
-------0------------|--------------------|---------------------|-------------------|
--------------------|-------1------------|---------------------|-------------------|
--2-----------------|--------------------|--0------------L---2-|--4----------------|
--------------------|--3-----------------|---------------------|-------------------|
--------------------|--------------------|--3------------L-----|--5----------------|
--------------------|--------------------|---------------------|-------------------|


  Q    H.              Q    H.              H.           E.  S    W                 
-------0------------|--------------------|---------------------|-------------------|
--------------------|-------1------------|---------------------|-------------------|
--2-----------------|--------------------|--0------------L---2-|--4----------------|
--------------------|--3-----------------|---------------------|-------------------|
--------------------|--------------------|--3------------L-----|--5----------------|
--------------------|--------------------|---------------------|-------------------|


  Q     H.               Q     H.              H.           E.   S     W                 
--8----12------------|--------10------------|----------------------|--------------------|
---------------------|--10------------------|--8------------L---10-|--12----------------|
---------------------|----------------------|----------------------|--------------------|
--7------------------|----------------------|----------------------|--------------------|
---------------------|---8------------------|----------------------|--------------------|
---------------------|----------------------|--8------------L------|--10----------------|


  W                   W                  
-------------------|-------------------||
--1----------------|-------------------||
-------------------|--2----------------||
-------------------|-------------------||
--0----------------|-------------------||
-------------------|-------------------||




Duration Legend
---------------
W - whole
H - half
Q - quarter
E - 8th
S - 16th
T - 32nd
X - 64th
. - note dotted
|-n-|  - n-tuplets


Tablature Legend
----------------
L - tied note

Login or Register to remove this ad.