Ads

Main Theme (Legend of Zelda) Guitar Tab

Submitted: May 23, 2014 by TheDoomOfAllFires (Last updated: May 28, 2014)

4.666665
Average: 4.7 (6 votes)
Download | Listen
Game: Legend of Zelda
Composer(s): Koji Kondo
Style: Arrangement, Fingerstyle
Series: Legend of Zelda

This song is also called Title Screen

AutoScroll: Slow | Medium | Fast
"Main Theme" - The Legend of Zelda
Composer : Koji Kondo
Arrangement : TheDoomOfAllFires
Tuning : Standard EADGBE
BPM : 95
Capo. 1

Inspired by Jonas Lefvert's arrangement (https://www.youtube.com/watch?v=JSxtKxg4yoU)
Dude, if you ever read this, your rendition of this track is FECKIN' AWESOME.



     Q     Q    E  E  E   E     S  S E  Q    H         
E||--5~------------0--0h--5--|--3p-1-3----------------|
B||--------------------------|--0---------------------|
G||-------------2------------|---------------0--------|
D||--------2-----------------|----------0-------------|
A||--0-----------------------|--2---------------------|
E||--------------------------|------------------------|


  Q     Q    E  E  E  E     S  S E   Q    H         
--5~------------------5--|--4p-2-4~----------------|
----------------6--6-----|--0----------------------|
--5~---------------------|-------------------------|
--3----------3-----------|----------------2--------|
--------3----------------|-----------2-------------|
-------------------------|--0----------------------|


    PM PM PM PM PM PM PM PM PM PM PM PM PM                                     
    E  S  S  E  S  S  E  S  S  S  S  S  S       E  S S E  S S E  E  S  S S  S  
|-------------------------------------------||--------------------------------|
|-------------------------------------------||---------------------------2h-3-|
|*--2--------------------------------------*||--2----------------2--2h-4------|
|*--2--2--2--2--2--2--2--2--2--2--2--2--2--*||---------2------------2---------|
|---0--0--0--0--0--0--0--0--0--0--0--0--0---||--0--0-0-0--0-0-0-----0----0----|
|-------------------------------------------||--------------------------------|


  E  S S S S  S S E  S S E  S S    E  S S E  S S E  E  S  S S  S  
--0-----------------------------|--------------------------------|
--x-----------------------------|---------------------------2h-3-|
--0---------------0-------------|--2----------------2--2h-4------|
--2-------------0-2------0------|--x------2------------x---------|
-------0-0-2h-4---x------2------|--3------3------3-----3---------|
--3--3------------3--3-3-3--3-3-|--1--1-1-1--1-1-1-----1----1----|


                                            |--3--|                   
  E  S S S S  S S E  S S E  S S      E  S S E  E  E  E  E  S  S S  S  
--0-----------------------------||-----------------------------------|
--0-----------------------------||------------------------------2h-3-|
--1-----------------------------||*--2------------------2--2h-4------|
--2-------------0-2-------------||*--2------2--2--0--2-----2---------|
--2----0-0-2h-4----------2------||---0--0-0-0--0--0--0-----0----0----|
--0--0------------0--0-0-0--0-0-||-----------------------------------|


                         ^                                          
                                          |--3--|                   
  E  S S S S  S S E  S S S. S. S    E  E  E  E  E  E  S S S  E   S  
--0----------------------0h-1--3-|--5-----------------5-5-5p-3--\1-|
--x----------------------0-------|--x---------------------x--------|
--0----------------------0-------|--5-----5--5--5--5------5--------|
--2------0------0-2--------------|--3--3--3--3--2--3--3---3--------|
-------0-0-2h-4------------------|---------------------------------|
--3--3------------3--3-3-3-------|---------------------------------|


  E  S S E  S S E  S S E  S S    E  S S E  S S E  S S E  E   
--3----1-0-------------0------|-------0-1------1------0-----|
--1----1-1-------------1------|--3--3---3------1------1--3--|
--0----0--------0-------------|--3--3---3------3------------|
--x-------------2-------------|--x--------------------------|
--3--3-3-3--3-3-3--3-3-3--3-3-|--1------1--1-1-1--1-1-1-----|
------------------------------|-----------------------------|


  E  S S E  S S E  S S E  E     E  S  S E  S S E  S S E  S S  
---------0-------------------|------------------------2------|
--1--1-3-x-------------3--1--|--0--0h-2-4--------------------|
--2--2---2------0------0-----|--4--4----x-------------2------|
--x-------------2------2-----|--4-------4------2------1------|
--0--0---0--0-0-0--0-0-0-----|--2-------2--2-2-2--2-2-2--2-2-|
-----------------------------|-------------------------------|


                                                        ^     
                                         |--3--|              
  E  S S E  S S E  S S E  S S      E  E  E  E  E  Q     Q     
--0----------------------------||--5--------------------8----|
--0--------------------0-------||--x-------------------10----|
--1-------------1------1------*||--5-----5--5--5--5----10----|
---------2------2------2------*||--3--3--3--3--2--3----------|
---------2------2------x-------||----------------------------|
--0--0-0-0--0-0-0--0-0-0--0-0--||----------------------------|


                                                         ^     
       |--3--|                 |---3--|  |--3--|               
  Q    E  E  E  E  S S Q       E  E   E  E  E  E   Q     Q     
--7----3---------------0----|--1-------------------------5----|
--x----0---------------0----|------------------1s--4~---------|
--4----0--------0-----------|---------------2------------5----|
--5----2--------2-----------|--1---------1--------------------|
----------------------------|-----0h--3------------------3----|
-------0--0--0--0--0-0-0----|---------------------------------|


                                                          ^     
                                |---3--|  |--3--|               
  E  S S E  S S E  S S E  E     E  E   E  E  E  E   Q     Q     
--4------0------0------0-----|--1-------------------------5----|
--0------0------0------0-----|------------------1s--4~---------|
---------4------2------1-----|---------------2------------5----|
---------2------2------x-----|--1---------1--------------------|
-----------------------x-----|-----0h--3------------------3----|
--0--0-0-0--0-0-0--0-0-0--0--|---------------------------------|


                                       |--3--|               
  E  S S E  S S E  S S E  E     E  S S E  E  E  E  S S Q     
--4------0------0------------|-------------------------1----|
--0------0------0------2-----|--3----3-3--3--2--3------3----|
---------4------2------2-----|--3----3-3--3--3--3------3----|
---------2------2------x-----|-----------------------3------|
-----------------------x-----|--1--1---1--1--1--1--1---1----|
--0--0-0-0--0-0-0--0-0-0--0--|------------------------------|


         |--3--|                                                 
  E  S S E  E  E  E  S S E  S S    E  S  S E  S S E  S S E  S S  
--0-----------------------------|------------------------2------|
--1----1-1--1--0--1-------------|--0--0h-2-4-------------0------|
-------2-2--2--2--2------2------|--x--4----4-------------4------|
-------------------------2------|--4--------------4-------------|
--0--0-0-0--0--0--0--0-0-0--0-0-|--2-------2--2-2-2--2-2-2--2-2-|
--------------------------------|-------------------------------|


  E  S S E  S S E  S S E  S S    Q     Q    E  E  E   E   
--0---------------------------|--5~------------0--0h--5--|
--0--------------------0------|--------------------------|
--1-------------1------1------|-------------2------------|
---------2------2------2------|--------2-----------------|
---------2------2------x------|--0-----------------------|
--0--0-0-0--0-0-0--0-0-0--0-0-|--------------------------|


  S  S E  Q    H           Q     Q    E  E  E  E     S  S E   Q    H         
--3p-1-3----------------|--5~------------------5--|--4p-2-4~----------------|
--0---------------------|----------------6--6-----|--0----------------------|
---------------0--------|--5~---------------------|-------------------------|
----------0-------------|--3----------3-----------|----------------2--------|
--2---------------------|--------3----------------|-----------2-------------|
------------------------|-------------------------|--0----------------------|


  W                  
-------------------||
-------------------||
-------------------||
-------------------||
-------------------||
-------------------||




Duration Legend
---------------
W - whole
H - half
Q - quarter
E - 8th
S - 16th
T - 32nd
X - 64th
. - note dotted
|-n-|  - n-tuplets


Tablature Legend
----------------
L - tied note
x - dead note
g - grace note
(n) - ghost note
> - accentuded note
NH - natural harmonic
AH - artificial harmonic
TH - tapped harmonic
SH - semi harmonic
PH - pitch harmonic
h - hammer on
p - pull off
b - bend
br - bendRelease
pb - preBend
pbr - preBendRelease
brb - bendReleaseBend
\n/ - tremolo bar dip
\n - tremolo bar dive
-/n - tremolo bar Release up
/n\ - tremolo bar inverted dip
/n - tremolo bar return
-\n - tremolo bar Release down
S - shift slide
s - legato slide
/ -  slide into from below or out of upwards
\ -  slide into from above or out of downwards
~ - vibrato
W - wide vibrato
tr - trill
TP - tremolo picking
T - tapping
S - slap
P - pop
< - fade in
^ - brush up
v - brush down

Login or Register to remove this ad.

1 comment on Main Theme

i love you

5

i do